  0
SECTION
  2
HEADER
  9
$ACADVER
  1
AC1009
  9
$EXTMIN
 10
0.02259222
 20
-0.00000000
 30
0.0
  9
$EXTMAX
 10
2205.88442354
 20
1332.28221416
 30
0.0
  0
ENDSEC
  0
SECTION
  2
TABLES
  0
TABLE
  2
LAYER
 70
2
 0
LAYER
 2
WHITE
 70
0
 62
1
 6
CONTINUOUS
 0
LAYER
 2
Default_Layer
 70
0
 62
1
 6
CONTINUOUS
 0
ENDTAB
 0
ENDSEC
  0
SECTION
  2
ENTITIES
  0
POLYLINE
  8
WHITE
 66
   1
 39
0.000000
 70
    1
  0
VERTEX
  8
0
 10
138.98669565
 20
97.81211190
 42
0.15627193
  0
VERTEX
  8
0
 10
122.51073134
 20
91.90082916
  0
VERTEX
  8
0
 10
109.52624668
 20
86.74320522
 42
-0.24854882
  0
VERTEX
  8
0
 10
106.30840216
 20
87.09574335
 42
-0.24854882
  0
VERTEX
  8
0
 10
104.79287229
 20
89.95615866
  0
VERTEX
  8
0
 10
104.79287229
 20
126.79523094
 42
0.41421356
  0
VERTEX
  8
0
 10
104.10144372
 20
127.48665951
  0
VERTEX
  8
0
 10
99.43430086
 20
127.48665951
 42
0.41421356
  0
VERTEX
  8
0
 10
98.74287229
 20
126.79523094
  0
VERTEX
  8
0
 10
98.74287229
 20
89.47552591
 42
-0.24854887
  0
VERTEX
  8
0
 10
97.22734192
 20
86.61511027
 42
-0.24854887
  0
VERTEX
  8
0
 10
94.00949749
 20
86.26257143
  0
VERTEX
  8
0
 10
79.81501169
 20
91.90082917
 42
0.21045860
  0
VERTEX
  8
0
 10
57.35064699
 20
97.38991674
 42
0.21045860
  0
VERTEX
  8
0
 10
38.13588608
 20
84.52248288
 42
0.23593085
  0
VERTEX
  8
0
 10
25.53972532
 20
9.52406853
 42
-0.41421356
  0
VERTEX
  8
0
 10
16.01565579
 20
-0.00000000
 42
-0.41421356
  0
VERTEX
  8
0
 10
6.49158748
 20
9.52406961
 42
-0.18950537
  0
VERTEX
  8
0
 10
17.38757747
 20
128.34412394
 42
-0.35920074
  0
VERTEX
  8
0
 10
25.03692913
 20
131.71512438
 42
0.27424327
  0
VERTEX
  8
0
 10
68.82565016
 20
143.39740976
 42
0.27424327
  0
VERTEX
  8
0
 10
79.57334409
 20
187.42484345
 42
-0.23766538
  0
VERTEX
  8
0
 10
79.83768805
 20
188.95764459
 42
-0.23766538
  0
VERTEX
  8
0
 10
81.22679475
 20
189.65745863
  0
VERTEX
  8
0
 10
121.09894983
 20
189.65745863
 42
-0.23766538
  0
VERTEX
  8
0
 10
122.48805653
 20
188.95764459
 42
-0.23766538
  0
VERTEX
  8
0
 10
122.75239965
 20
187.42484369
 42
0.27424327
  0
VERTEX
  8
0
 10
133.50009442
 20
143.39740976
 42
0.27424327
  0
VERTEX
  8
0
 10
177.28881707
 20
131.71511866
 42
-0.35920068
  0
VERTEX
  8
0
 10
184.93816134
 20
128.34412274
 42
-0.18950537
  0
VERTEX
  8
0
 10
195.83415040
 20
9.52406953
 42
-0.41421356
  0
VERTEX
  8
0
 10
186.31008187
 20
-0.00000000
 42
-0.41421356
  0
VERTEX
  8
0
 10
176.78601235
 20
9.52406853
 42
0.23593085
  0
VERTEX
  8
0
 10
164.18985592
 20
84.52248168
 42
0.24019602
  0
VERTEX
  8
0
 10
141.75241028
 20
97.77397633
  0
VERTEX
  8
0
 10
141.06147737
 20
97.80852298
  0
VERTEX
  8
0
 10
140.37001286
 20
97.82639723
  0
VERTEX
  8
0
 10
139.67831839
 20
97.82759492
  0
VERTEX
  8
0
 10
138.98669565
 20
97.81211190
  0
SEQEND
  0
POLYLINE
  8
WHITE
 66
   1
 39
0.000000
 70
    1
  0
VERTEX
  8
0
 10
105.20311866
 20
952.72950513
 42
0.26495469
  0
VERTEX
  8
0
 10
81.28908947
 20
864.10079586
 42
-0.12983323
  0
VERTEX
  8
0
 10
81.28245066
 20
862.33516245
 42
-0.41960951
  0
VERTEX
  8
0
 10
44.79269946
 20
841.72160252
 42
-0.35146003
  0
VERTEX
  8
0
 10
40.28959255
 20
846.82286166
 42
-0.35146003
  0
VERTEX
  8
0
 10
44.29126174
 20
852.32626610
 42
0.21289362
  0
VERTEX
  8
0
 10
54.72335815
 20
883.14316426
 42
0.25049293
  0
VERTEX
  8
0
 10
6.52155658
 20
978.60875667
 42
-0.38845421
  0
VERTEX
  8
0
 10
6.01812463
 20
980.88754223
  0
VERTEX
  8
0
 10
16.79368954
 20
999.55136367
 42
-0.41421356
  0
VERTEX
  8
0
 10
17.73819846
 20
999.80444369
  0
VERTEX
  8
0
 10
51.78579716
 20
980.14705314
 42
0.41421349
  0
VERTEX
  8
0
 10
52.73030600
 20
980.40013349
  0
VERTEX
  8
0
 10
55.06387743
 20
984.44200020
 42
0.41421362
  0
VERTEX
  8
0
 10
54.81079729
 20
985.38650891
  0
VERTEX
  8
0
 10
20.76319846
 20
1005.04389898
 42
-0.41421342
  0
VERTEX
  8
0
 10
20.51011832
 20
1005.98840797
  0
VERTEX
  8
0
 10
31.82728798
 20
1025.59032605
 42
-0.40153162
  0
VERTEX
  8
0
 10
34.12265697
 20
1026.25918770
 42
0.09755598
  0
VERTEX
  8
0
 10
88.40463229
 20
1010.31993772
 42
0.08650108
  0
VERTEX
  8
0
 10
220.75310313
 20
1035.58654552
 42
0.15949013
  0
VERTEX
  8
0
 10
233.52655248
 20
1045.15647017
 42
-0.28836966
  0
VERTEX
  8
0
 10
236.92066705
 20
1046.58269452
 42
-0.21076198
  0
VERTEX
  8
0
 10
246.25708740
 20
1040.47713412
 42
-0.21076198
  0
VERTEX
  8
0
 10
248.04275378
 20
1029.46541296
 42
-0.09389412
  0
VERTEX
  8
0
 10
232.53076345
 20
990.73868724
 42
-0.28247927
  0
VERTEX
  8
0
 10
229.27638447
 20
989.15875510
 42
0.19035863
  0
VERTEX
  8
0
 10
107.38492730
 20
954.42912490
  0
VERTEX
  8
0
 10
106.82612955
 20
954.01859131
  0
VERTEX
  8
0
 10
106.26211093
 20
953.61347143
  0
VERTEX
  8
0
 10
105.71404834
 20
953.19127334
  0
VERTEX
  8
0
 10
105.45261833
 20
952.96674124
  0
VERTEX
  8
0
 10
105.20311866
 20
952.72950513
  0
SEQEND
  0
POLYLINE
  8
WHITE
 66
   1
 39
0.000000
 70
    1
  0
VERTEX
  8
0
 10
136.91992640
 20
212.58061381
 42
-0.04968492
  0
VERTEX
  8
0
 10
103.91701346
 20
208.33008296
 42
-0.20265735
  0
VERTEX
  8
0
 10
102.66268126
 20
208.81818021
 42
-0.20265735
  0
VERTEX
  8
0
 10
102.13866815
 20
210.05793763
  0
VERTEX
  8
0
 10
102.13866815
 20
238.71113866
 42
0.41421356
  0
VERTEX
  8
0
 10
101.44723958
 20
239.40256723
  0
VERTEX
  8
0
 10
96.78009672
 20
239.40256723
 42
0.41421356
  0
VERTEX
  8
0
 10
96.08866815
 20
238.71113866
  0
VERTEX
  8
0
 10
96.08866815
 20
210.02749057
 42
-0.20170938
  0
VERTEX
  8
0
 10
95.56916338
 20
208.79212950
 42
-0.20170938
  0
VERTEX
  8
0
 10
94.32291371
 20
208.29932119
 42
-0.06979728
  0
VERTEX
  8
0
 10
48.29153903
 20
215.76947751
 42
0.39205261
  0
VERTEX
  8
0
 10
31.34163616
 20
207.64388866
 42
0.16258273
  0
VERTEX
  8
0
 10
27.72489121
 20
140.92473392
 42
-0.31684491
  0
VERTEX
  8
0
 10
27.45520437
 20
140.17543452
 42
-0.31684491
  0
VERTEX
  8
0
 10
26.65885036
 20
140.17706396
 42
-0.37039815
  0
VERTEX
  8
0
 10
6.88471720
 20
164.11425649
 42
-0.11553566
  0
VERTEX
  8
0
 10
20.75331668
 20
234.67087218
 42
-0.39616135
  0
VERTEX
  8
0
 10
25.12882506
 20
236.48108742
 42
0.29209503
  0
VERTEX
  8
0
 10
65.82214272
 20
244.99579861
 42
0.29209503
  0
VERTEX
  8
0
 10
75.21015624
 20
285.49655897
 42
-0.24357737
  0
VERTEX
  8
0
 10
75.42767389
 20
287.07144718
 42
-0.24357737
  0
VERTEX
  8
0
 10
76.83942809
 20
287.80256723
  0
VERTEX
  8
0
 10
120.17790475
 20
287.80256723
 42
-0.24357737
  0
VERTEX
  8
0
 10
121.58965895
 20
287.07144718
 42
-0.24357737
  0
VERTEX
  8
0
 10
121.80717636
 20
285.49655904
 42
0.29209503
  0
VERTEX
  8
0
 10
131.19519012
 20
244.99579861
 42
0.29209503
  0
VERTEX
  8
0
 10
171.88850760
 20
236.48108784
 42
-0.39616162
  0
VERTEX
  8
0
 10
176.26402248
 20
234.67087351
 42
-0.11553566
  0
VERTEX
  8
0
 10
190.13261925
 20
164.11425656
 42
-0.37039815
  0
VERTEX
  8
0
 10
170.35848374
 20
140.17705960
 42
-0.31684417
  0
VERTEX
  8
0
 10
169.56213114
 20
140.17543507
 42
-0.31684417
  0
VERTEX
  8
0
 10
169.29244162
 20
140.92473392
 42
0.16258273
  0
VERTEX
  8
0
 10
165.67569527
 20
207.64388874
 42
0.39205261
  0
VERTEX
  8
0
 10
148.72579364
 20
215.76947732
 42
-0.01398274
  0
VERTEX
  8
0
 10
139.68563941
 20
213.24527481
  0
VERTEX
  8
0
 10
136.91992640
 20
212.58061381
  0
SEQEND
  0
POLYLINE
  8
WHITE
 66
   1
 39
0.000000
 70
    1
  0
VERTEX
  8
0
 10
136.01601028
 20
313.44868583
 42
-0.04774206
  0
VERTEX
  8
0
 10
104.65117601
 20
309.53119825
 42
-0.20266354
  0
VERTEX
  8
0
 10
104.14942205
 20
309.72642474
 42
-0.20266354
  0
VERTEX
  8
0
 10
103.93980500
 20
310.22233917
  0
VERTEX
  8
0
 10
103.93980500
 20
336.51205066
 42
0.41421342
  0
VERTEX
  8
0
 10
103.24837643
 20
337.20347923
  0
VERTEX
  8
0
 10
98.58123358
 20
337.20347923
 42
0.41421355
  0
VERTEX
  8
0
 10
97.88980500
 20
336.51205066
  0
VERTEX
  8
0
 10
97.88980846
 20
310.26169183
 42
-0.20361716
  0
VERTEX
  8
0
 10
97.67837043
 20
309.76401321
 42
-0.20361716
  0
VERTEX
  8
0
 10
97.17337075
 20
309.57071360
 42
-0.06416246
  0
VERTEX
  8
0
 10
55.34232326
 20
316.50705807
 42
0.27647108
  0
VERTEX
  8
0
 10
41.56659860
 20
313.03360843
 42
0.39678545
  0
VERTEX
  8
0
 10
40.45646321
 20
274.59263822
 42
-0.33406045
  0
VERTEX
  8
0
 10
37.45759319
 20
269.46834298
 42
-0.33406045
  0
VERTEX
  8
0
 10
31.70238132
 20
270.92751968
 42
-0.36802766
  0
VERTEX
  8
0
 10
30.88347273
 20
336.60297593
 42
-0.29165933
  0
VERTEX
  8
0
 10
36.19257883
 20
338.30598511
 42
0.24639761
  0
VERTEX
  8
0
 10
68.70369747
 20
345.78116426
 42
0.24639761
  0
VERTEX
  8
0
 10
81.02954667
 20
376.77994644
 42
-0.21255586
  0
VERTEX
  8
0
 10
81.46407398
 20
378.11726560
 42
-0.21255586
  0
VERTEX
  8
0
 10
82.74864978
 20
378.68919351
  0
VERTEX
  8
0
 10
120.29096032
 20
378.68919351
 42
-0.21255585
  0
VERTEX
  8
0
 10
121.57553606
 20
378.11726556
 42
-0.21255585
  0
VERTEX
  8
0
 10
122.01006186
 20
376.77994661
 42
0.24639761
  0
VERTEX
  8
0
 10
134.33591254
 20
345.78116426
 42
0.24639761
  0
VERTEX
  8
0
 10
166.84703087
 20
338.30598618
 42
-0.29165916
  0
VERTEX
  8
0
 10
172.15613647
 20
336.60297818
 42
-0.36802765
  0
VERTEX
  8
0
 10
171.33722724
 20
270.92751918
 42
-0.33406041
  0
VERTEX
  8
0
 10
165.58201485
 20
269.46834006
 42
-0.33406041
  0
VERTEX
  8
0
 10
162.58314286
 20
274.59263905
 42
0.39678543
  0
VERTEX
  8
0
 10
161.47300864
 20
313.03360774
 42
0.27647105
  0
VERTEX
  8
0
 10
147.69728675
 20
316.50705807
 42
-0.01403236
  0
VERTEX
  8
0
 10
138.71109744
 20
314.07406122
  0
VERTEX
  8
0
 10
136.01601028
 20
313.44868583
  0
SEQEND
  0
POLYLINE
  8
WHITE
 66
   1
 39
0.000000
 70
    1
  0
VERTEX
  8
0
 10
105.36131605
 20
771.05814491
 42
0.19418320
  0
VERTEX
  8
0
 10
82.70530377
 20
773.75669000
 42
-0.23359455
  0
VERTEX
  8
0
 10
82.10415901
 20
773.87474824
 42
-0.23359455
  0
VERTEX
  8
0
 10
81.83275583
 20
774.42397691
  0
VERTEX
  8
0
 10
81.83275583
 20
789.48808971
 42
0.41421354
  0
VERTEX
  8
0
 10
81.14132726
 20
790.17951829
  0
VERTEX
  8
0
 10
76.47418440
 20
790.17951829
 42
0.41421355
  0
VERTEX
  8
0
 10
75.78275583
 20
789.48808971
  0
VERTEX
  8
0
 10
75.78275583
 20
774.72654927
 42
-0.22832615
  0
VERTEX
  8
0
 10
75.52225580
 20
774.18583326
 42
-0.22832615
  0
VERTEX
  8
0
 10
74.93704557
 20
774.05255173
 42
0.23377431
  0
VERTEX
  8
0
 10
48.64856078
 20
767.77871635
 42
0.23377431
  0
VERTEX
  8
0
 10
37.67935746
 20
743.07806768
 42
-0.28964557
  0
VERTEX
  8
0
 10
37.31053305
 20
742.43760142
 42
-0.28964557
  0
VERTEX
  8
0
 10
36.57378758
 20
742.49622862
 42
-0.20763556
  0
VERTEX
  8
0
 10
22.72747216
 20
766.78787448
 42
-0.20763556
  0
VERTEX
  8
0
 10
31.01275244
 20
793.49290472
 42
0.38778448
  0
VERTEX
  8
0
 10
63.94879305
 20
828.13451265
 42
-0.40827972
  0
VERTEX
  8
0
 10
67.40522749
 20
831.52147420
  0
VERTEX
  8
0
 10
91.42028436
 20
831.52147420
 42
-0.40827972
  0
VERTEX
  8
0
 10
94.87671461
 20
828.13451266
 42
0.38778448
  0
VERTEX
  8
0
 10
127.81275314
 20
793.49290246
 42
-0.20763556
  0
VERTEX
  8
0
 10
136.09803261
 20
766.78787485
 42
-0.20763556
  0
VERTEX
  8
0
 10
122.25171661
 20
742.49623399
 42
-0.28964560
  0
VERTEX
  8
0
 10
121.51497670
 20
742.43760451
 42
-0.28964560
  0
VERTEX
  8
0
 10
121.14615322
 20
743.07806772
 42
0.26038212
  0
VERTEX
  8
0
 10
107.73185605
 20
769.61222684
  0
VERTEX
  8
0
 10
107.15169094
 20
769.99389085
  0
VERTEX
  8
0
 10
106.56305874
 20
770.36219237
  0
VERTEX
  8
0
 10
105.96619019
 20
770.71699064
  0
VERTEX
  8
0
 10
105.36131605
 20
771.05814491
  0
SEQEND
  0
POLYLINE
  8
WHITE
 66
   1
 39
0.000000
 70
    1
  0
VERTEX
  8
0
 10
100.34326684
 20
588.90502959
 42
0.06894522
  0
VERTEX
  8
0
 10
87.84042793
 20
594.93031588
 42
-0.32568209
  0
VERTEX
  8
0
 10
87.36084826
 20
595.58849026
  0
VERTEX
  8
0
 10
87.36084826
 20
613.01192329
 42
0.41421354
  0
VERTEX
  8
0
 10
86.66941974
 20
613.70335186
  0
VERTEX
  8
0
 10
82.00227683
 20
613.70335186
 42
0.41421356
  0
VERTEX
  8
0
 10
81.31084826
 20
613.01192329
  0
VERTEX
  8
0
 10
81.31084826
 20
595.18232783
 42
-0.31881019
  0
VERTEX
  8
0
 10
80.84759087
 20
594.52963236
 42
0.14420352
  0
VERTEX
  8
0
 10
57.63850060
 20
577.86441524
 42
-0.08927018
  0
VERTEX
  8
0
 10
56.72676986
 20
577.04668440
 42
-0.32610402
  0
VERTEX
  8
0
 10
33.27418334
 20
578.86622082
 42
-0.32610402
  0
VERTEX
  8
0
 10
27.85541702
 20
601.75664585
 42
-0.22936843
  0
VERTEX
  8
0
 10
32.37891905
 20
605.73886326
 42
0.34249132
  0
VERTEX
  8
0
 10
67.85439965
 20
653.39138425
 42
-0.20151154
  0
VERTEX
  8
0
 10
68.84196917
 20
655.88050628
 42
-0.20151154
  0
VERTEX
  8
0
 10
71.31085166
 20
656.91763757
  0
VERTEX
  8
0
 10
98.57084486
 20
656.91763757
 42
-0.20151154
  0
VERTEX
  8
0
 10
101.03972735
 20
655.88050628
 42
-0.20151154
  0
VERTEX
  8
0
 10
102.02729565
 20
653.39138425
 42
0.34249132
  0
VERTEX
  8
0
 10
137.50277732
 20
605.73886248
 42
-0.22936850
  0
VERTEX
  8
0
 10
142.02627867
 20
601.75664548
 42
-0.32610402
  0
VERTEX
  8
0
 10
136.60751318
 20
578.86622082
 42
-0.32610402
  0
VERTEX
  8
0
 10
113.15492603
 20
577.04668335
 42
-0.08927018
  0
VERTEX
  8
0
 10
112.24319524
 20
577.86441472
 42
0.06702221
  0
VERTEX
  8
0
 10
102.60489571
 20
587.31044807
  0
VERTEX
  8
0
 10
101.48499151
 20
588.12321305
  0
VERTEX
  8
0
 10
100.34326684
 20
588.90502959
  0
SEQEND
  0
POLYLINE
  8
WHITE
 66
   1
 39
0.000000
 70
    1
  0
VERTEX
  8
0
 10
139.49772770
 20
392.95203594
 42
0.16175091
  0
VERTEX
  8
0
 10
119.21338955
 20
403.51611526
  0
VERTEX
  8
0
 10
103.09274273
 20
403.51611180
 42
-0.41421354
  0
VERTEX
  8
0
 10
102.40131420
 20
404.20754037
  0
VERTEX
  8
0
 10
102.40131420
 20
419.76468323
 42
0.41421354
  0
VERTEX
  8
0
 10
101.70988563
 20
420.45611180
  0
VERTEX
  8
0
 10
97.04274278
 20
420.45611180
 42
0.41421355
  0
VERTEX
  8
0
 10
96.35131420
 20
419.76468323
  0
VERTEX
  8
0
 10
96.35131420
 20
404.20754034
 42
-0.41421355
  0
VERTEX
  8
0
 10
95.65988563
 20
403.51611180
  0
VERTEX
  8
0
 10
78.32924153
 20
403.51611624
 42
0.40377923
  0
VERTEX
  8
0
 10
48.09164053
 20
363.22872717
 42
-0.22297500
  0
VERTEX
  8
0
 10
47.90957492
 20
362.67017456
 42
-0.22297500
  0
VERTEX
  8
0
 10
47.36360363
 20
362.45327512
 42
-0.24116350
  0
VERTEX
  8
0
 10
40.93996368
 20
366.25080275
 42
-0.32217030
  0
VERTEX
  8
0
 10
39.37809790
 20
418.18284213
 42
0.30012806
  0
VERTEX
  8
0
 10
82.82390279
 20
459.37784572
 42
-0.36836783
  0
VERTEX
  8
0
 10
86.23742549
 20
462.28754037
  0
VERTEX
  8
0
 10
111.30520656
 20
462.28754037
 42
-0.36836783
  0
VERTEX
  8
0
 10
114.71872807
 20
459.37784555
 42
0.30012806
  0
VERTEX
  8
0
 10
158.16453362
 20
418.18284182
 42
-0.32217030
  0
VERTEX
  8
0
 10
156.60266938
 20
366.25080204
 42
-0.24116355
  0
VERTEX
  8
0
 10
150.17902646
 20
362.45327646
 42
-0.22297468
  0
VERTEX
  8
0
 10
149.63305637
 20
362.67017518
 42
-0.22297468
  0
VERTEX
  8
0
 10
149.45099056
 20
363.22872727
 42
0.20721517
  0
VERTEX
  8
0
 10
141.34654280
 20
390.89349267
  0
VERTEX
  8
0
 10
140.44177058
 20
391.94039916
  0
VERTEX
  8
0
 10
139.49772770
 20
392.95203594
  0
SEQEND
  0
POLYLINE
  8
WHITE
 66
   1
 39
0.000000
 70
    1
  0
VERTEX
  8
0
 10
101.53020880
 20
667.43643036
 42
0.13131028
  0
VERTEX
  8
0
 10
86.58001612
 20
666.35107271
 42
-0.24264977
  0
VERTEX
  8
0
 10
85.95265672
 20
666.44108380
 42
-0.24264977
  0
VERTEX
  8
0
 10
85.66218458
 20
667.00438426
  0
VERTEX
  8
0
 10
85.66218458
 20
681.77771331
 42
0.41421352
  0
VERTEX
  8
0
 10
84.97075600
 20
682.46914189
  0
VERTEX
  8
0
 10
80.30361315
 20
682.46914189
 42
0.41421355
  0
VERTEX
  8
0
 10
79.61218458
 20
681.77771331
  0
VERTEX
  8
0
 10
79.61218458
 20
666.55540162
 42
-0.24840605
  0
VERTEX
  8
0
 10
79.30938622
 20
665.98352752
 42
-0.24840605
  0
VERTEX
  8
0
 10
78.66620092
 20
665.91253639
 42
0.30055891
  0
VERTEX
  8
0
 10
47.33915954
 20
659.33638698
 42
-0.10269485
  0
VERTEX
  8
0
 10
46.75380970
 20
658.94769094
 42
-0.39707264
  0
VERTEX
  8
0
 10
37.92489523
 20
662.41739343
 42
-0.36130104
  0
VERTEX
  8
0
 10
44.00361232
 20
685.92628505
 42
0.36477250
  0
VERTEX
  8
0
 10
67.11455319
 20
720.13406302
 42
-0.21264320
  0
VERTEX
  8
0
 10
67.98259194
 20
722.81014103
 42
-0.21264320
  0
VERTEX
  8
0
 10
70.55251700
 20
723.95485617
  0
VERTEX
  8
0
 10
93.51184923
 20
723.95485617
 42
-0.21264320
  0
VERTEX
  8
0
 10
96.08177375
 20
722.81014103
 42
-0.21264320
  0
VERTEX
  8
0
 10
96.94981251
 20
720.13406302
 42
0.36477249
  0
VERTEX
  8
0
 10
120.06075648
 20
685.92628569
 42
-0.36130101
  0
VERTEX
  8
0
 10
126.13947281
 20
662.41739215
 42
-0.39707264
  0
VERTEX
  8
0
 10
117.31055651
 20
658.94769222
 42
-0.10269485
  0
VERTEX
  8
0
 10
116.72520607
 20
659.33638688
 42
0.12740545
  0
VERTEX
  8
0
 10
104.21911556
 20
666.78891910
  0
VERTEX
  8
0
 10
103.55281869
 20
666.97479256
  0
VERTEX
  8
0
 10
102.88237772
 20
667.14471489
  0
VERTEX
  8
0
 10
102.20807898
 20
667.29861714
  0
VERTEX
  8
0
 10
101.53020880
 20
667.43643036
  0
SEQEND
  0
POLYLINE
  8
WHITE
 66
   1
 39
0.000000
 70
    1
  0
VERTEX
  8
0
 10
119.12639587
 20
482.97490470
 42
0.14667891
  0
VERTEX
  8
0
 10
99.74035684
 20
485.52681524
 42
-0.21984193
  0
VERTEX
  8
0
 10
99.18175326
 20
485.68285713
 42
-0.21984193
  0
VERTEX
  8
0
 10
98.93849818
 20
486.20936829
  0
VERTEX
  8
0
 10
98.93849818
 20
502.18459380
 42
0.41421356
  0
VERTEX
  8
0
 10
98.24706960
 20
502.87602237
  0
VERTEX
  8
0
 10
93.57992675
 20
502.87602237
 42
0.41421355
  0
VERTEX
  8
0
 10
92.88849818
 20
502.18459380
  0
VERTEX
  8
0
 10
92.88849472
 20
486.38333859
 42
-0.21523375
  0
VERTEX
  8
0
 10
92.65443738
 20
485.86479894
 42
-0.21523375
  0
VERTEX
  8
0
 10
92.11072873
 20
485.69732387
 42
0.32443854
  0
VERTEX
  8
0
 10
57.07444753
 20
466.45459728
 42
-0.23338958
  0
VERTEX
  8
0
 10
54.67752330
 20
464.55123460
 42
-0.23338958
  0
VERTEX
  8
0
 10
51.70895818
 20
465.29665394
 42
-0.21496135
  0
VERTEX
  8
0
 10
42.87770624
 20
483.92326476
 42
-0.21496135
  0
VERTEX
  8
0
 10
50.98539859
 20
502.87602092
 42
0.32502973
  0
VERTEX
  8
0
 10
81.03626298
 20
542.69529626
 42
-0.40895921
  0
VERTEX
  8
0
 10
84.49284749
 20
546.09030809
  0
VERTEX
  8
0
 10
108.54414904
 20
546.09030809
 42
-0.40895920
  0
VERTEX
  8
0
 10
112.00073337
 20
542.69529620
 42
0.32502973
  0
VERTEX
  8
0
 10
142.05160107
 20
502.87602067
 42
-0.21496134
  0
VERTEX
  8
0
 10
150.15929354
 20
483.92326338
 42
-0.21496134
  0
VERTEX
  8
0
 10
141.32803748
 20
465.29665474
 42
-0.23338952
  0
VERTEX
  8
0
 10
138.35947449
 20
464.55123783
 42
-0.23338952
  0
VERTEX
  8
0
 10
135.96255218
 20
466.45459724
 42
0.15791180
  0
VERTEX
  8
0
 10
121.59500537
 20
481.74354578
  0
VERTEX
  8
0
 10
120.37317839
 20
482.38424047
  0
VERTEX
  8
0
 10
119.12639587
 20
482.97490470
  0
SEQEND
  0
POLYLINE
  8
WHITE
 66
   1
 39
0.000000
 70
    1
  0
VERTEX
  8
0
 10
272.77604561
 20
1160.55133923
 42
0.12246652
  0
VERTEX
  8
0
 10
209.94442973
 20
1185.27889088
 42
0.10657604
  0
VERTEX
  8
0
 10
108.60256654
 20
1137.95600728
 42
0.20955201
  0
VERTEX
  8
0
 10
100.04984372
 20
1111.62186853
 42
-0.34862636
  0
VERTEX
  8
0
 10
92.71211868
 20
1099.37521426
 42
-0.34862636
  0
VERTEX
  8
0
 10
79.11950883
 20
1103.74142779
 42
0.33583279
  0
VERTEX
  8
0
 10
58.37703664
 20
1130.40583724
 42
-0.21514365
  0
VERTEX
  8
0
 10
50.54542901
 20
1142.36997152
 42
-0.21514365
  0
VERTEX
  8
0
 10
54.33277982
 20
1156.15875409
 42
-0.11219550
  0
VERTEX
  8
0
 10
120.45908216
 20
1211.64951302
 42
0.14650859
  0
VERTEX
  8
0
 10
159.13659278
 20
1259.50206265
 42
-0.40261910
  0
VERTEX
  8
0
 10
160.01289555
 20
1259.88968103
  0
VERTEX
  8
0
 10
210.97739029
 20
1241.34012174
 42
0.41421218
  0
VERTEX
  8
0
 10
211.86359978
 20
1241.75337183
  0
VERTEX
  8
0
 10
213.45985922
 20
1246.13905079
 42
0.41421356
  0
VERTEX
  8
0
 10
213.04661140
 20
1247.02526361
  0
VERTEX
  8
0
 10
161.96134423
 20
1265.61878044
 42
-0.24823453
  0
VERTEX
  8
0
 10
161.52763151
 20
1266.09847737
 42
-0.24823453
  0
VERTEX
  8
0
 10
161.68020358
 20
1266.72691697
 42
-0.32217278
  0
VERTEX
  8
0
 10
232.05341365
 20
1282.65956605
 42
-0.40218083
  0
VERTEX
  8
0
 10
283.36323972
 20
1245.94092019
 42
0.16453180
  0
VERTEX
  8
0
 10
337.30740392
 20
1201.89519944
 42
-0.29772101
  0
VERTEX
  8
0
 10
340.43014944
 20
1186.83531108
 42
-0.20251568
  0
VERTEX
  8
0
 10
367.33760268
 20
1173.66344101
 42
0.20007480
  0
VERTEX
  8
0
 10
489.33350028
 20
1079.89892206
 42
-0.20215456
  0
VERTEX
  8
0
 10
505.06331851
 20
1071.66501869
 42
-0.16880548
  0
VERTEX
  8
0
 10
532.20730727
 20
1076.76725927
 42
-0.29093649
  0
VERTEX
  8
0
 10
546.88885228
 20
1097.25438271
 42
-0.09284190
  0
VERTEX
  8
0
 10
553.56910984
 20
1111.35465842
 42
-0.30226462
  0
VERTEX
  8
0
 10
578.93638860
 20
1124.33618477
  0
VERTEX
  8
0
 10
536.43092080
 20
1007.55337707
 42
-0.39130820
  0
VERTEX
  8
0
 10
521.14584169
 20
1015.18314906
 42
-0.20315790
  0
VERTEX
  8
0
 10
497.03657204
 20
1025.50805500
 42
-0.31833439
  0
VERTEX
  8
0
 10
458.50391030
 20
1030.23372083
 42
0.20773244
  0
VERTEX
  8
0
 10
382.45664013
 20
1076.51081421
 42
-0.22251421
  0
VERTEX
  8
0
 10
347.37198099
 20
1094.96335664
 42
-0.27833592
  0
VERTEX
  8
0
 10
313.32959660
 20
1123.36884740
 42
-0.32676321
  0
VERTEX
  8
0
 10
304.59024221
 20
1129.13279147
 42
0.07544272
  0
VERTEX
  8
0
 10
275.01344487
 20
1158.92501278
  0
VERTEX
  8
0
 10
272.77604561
 20
1160.55133923
  0
SEQEND
  0
POLYLINE
  8
WHITE
 66
   1
 39
0.000000
 70
    1
  0
VERTEX
  8
0
 10
216.42540506
 20
803.05867558
 42
0.15338815
  0
VERTEX
  8
0
 10
234.24845995
 20
806.22054594
  0
VERTEX
  8
0
 10
253.10565134
 20
810.11322499
 42
-0.24854884
  0
VERTEX
  8
0
 10
253.72719952
 20
809.93203401
 42
-0.24854884
  0
VERTEX
  8
0
 10
253.92635948
 20
809.31600833
  0
VERTEX
  8
0
 10
246.41906469
 20
766.74001020
 42
0.41421356
  0
VERTEX
  8
0
 10
246.97992168
 20
765.93901941
  0
VERTEX
  8
0
 10
251.57616075
 20
765.12857714
 42
0.41421327
  0
VERTEX
  8
0
 10
252.37715149
 20
765.68943734
  0
VERTEX
  8
0
 10
259.96790832
 20
808.73876794
 42
-0.24854875
  0
VERTEX
  8
0
 10
260.36575198
 20
809.24952464
 42
-0.24854875
  0
VERTEX
  8
0
 10
261.01178569
 20
809.20720734
  0
VERTEX
  8
0
 10
278.50853435
 20
798.41629943
 42
0.21045859
  0
VERTEX
  8
0
 10
300.79265362
 20
788.61988711
 42
0.21045859
  0
VERTEX
  8
0
 10
323.06344461
 20
798.44656298
 42
0.25067227
  0
VERTEX
  8
0
 10
349.08361280
 20
878.81866919
 42
-0.24517442
  0
VERTEX
  8
0
 10
350.99058548
 20
884.92412771
 42
-0.24517442
  0
VERTEX
  8
0
 10
357.08915295
 20
886.85302143
  0
VERTEX
  8
0
 10
362.60123189
 20
885.88109411
 42
-0.31756840
  0
VERTEX
  8
0
 10
368.21949821
 20
880.21627214
 42
-0.20448812
  0
VERTEX
  8
0
 10
336.56191481
 20
749.22677918
 42
-0.35920069
  0
VERTEX
  8
0
 10
328.01611750
 20
747.13046841
 42
0.28335245
  0
VERTEX
  8
0
 10
279.21817429
 20
742.08216191
 42
0.28335245
  0
VERTEX
  8
0
 10
261.78700540
 20
696.22499967
 42
-0.24661342
  0
VERTEX
  8
0
 10
261.32028934
 20
694.68685156
 42
-0.24661342
  0
VERTEX
  8
0
 10
259.78904266
 20
694.19796574
  0
VERTEX
  8
0
 10
216.19426035
 20
701.88490214
 42
-0.24661314
  0
VERTEX
  8
0
 10
214.92257012
 20
702.86802141
 42
-0.24661314
  0
VERTEX
  8
0
 10
215.01007605
 20
704.47303356
 42
0.28335245
  0
VERTEX
  8
0
 10
214.31420847
 20
753.52648141
 42
0.28335245
  0
VERTEX
  8
0
 10
170.18576322
 20
774.96022343
 42
-0.35920067
  0
VERTEX
  8
0
 10
162.87232247
 20
779.85294005
 42
-0.20448812
  0
VERTEX
  8
0
 10
177.92496846
 20
913.77033219
 42
-0.31756836
  0
VERTEX
  8
0
 10
185.14189206
 20
917.17196031
  0
VERTEX
  8
0
 10
190.65397446
 20
916.20003300
 42
-0.24517446
  0
VERTEX
  8
0
 10
195.72503245
 20
912.30163129
 42
-0.24517446
  0
VERTEX
  8
0
 10
195.42880978
 20
905.91215682
 42
0.25067227
  0
VERTEX
  8
0
 10
192.39089070
 20
821.48765991
 42
0.24443151
  0
VERTEX
  8
0
 10
213.69887956
 20
803.53986878
  0
VERTEX
  8
0
 10
214.37623811
 20
803.39614541
  0
VERTEX
  8
0
 10
215.05662447
 20
803.26800712
  0
VERTEX
  8
0
 10
215.73976975
 20
803.15550136
  0
VERTEX
  8
0
 10
216.42540506
 20
803.05867558
  0
SEQEND
  0
POLYLINE
  8
WHITE
 66
   1
 39
0.000000
 70
    1
  0
VERTEX
  8
0
 10
248.88794934
 20
443.90480228
 42
0.23881613
  0
VERTEX
  8
0
 10
273.14308804
 20
457.47444535
 42
-0.29437189
  0
VERTEX
  8
0
 10
292.78612173
 20
465.80282884
 42
-0.36481256
  0
VERTEX
  8
0
 10
293.35951083
 20
465.12155051
  0
VERTEX
  8
0
 10
293.35951083
 20
422.13471019
 42
0.41421355
  0
VERTEX
  8
0
 10
294.05093940
 20
421.44328166
  0
VERTEX
  8
0
 10
298.71808226
 20
421.44328166
 42
0.41421355
  0
VERTEX
  8
0
 10
299.40951083
 20
422.13471023
  0
VERTEX
  8
0
 10
299.40951083
 20
464.87112549
 42
-0.34649248
  0
VERTEX
  8
0
 10
299.93886377
 20
465.54328556
 42
-0.31213043
  0
VERTEX
  8
0
 10
320.83593076
 20
457.47444340
 42
0.23187676
  0
VERTEX
  8
0
 10
344.28344543
 20
443.94875833
 42
0.23187676
  0
VERTEX
  8
0
 10
369.33851115
 20
454.19442639
 42
0.21621407
  0
VERTEX
  8
0
 10
360.56020301
 20
600.13080141
 42
-0.26515205
  0
VERTEX
  8
0
 10
360.67126488
 20
603.55482041
 42
-0.26515205
  0
VERTEX
  8
0
 10
363.67503924
 20
605.20211639
 42
-0.17741677
  0
VERTEX
  8
0
 10
384.68796855
 20
597.10185784
 42
-0.11145332
  0
VERTEX
  8
0
 10
385.58446112
 20
595.87149471
 42
-0.22792348
  0
VERTEX
  8
0
 10
378.64906835
 20
424.67876124
 42
-0.28374787
  0
VERTEX
  8
0
 10
372.37948562
 20
421.01242313
 42
0.28542075
  0
VERTEX
  8
0
 10
327.28361701
 20
407.67052995
 42
0.28542075
  0
VERTEX
  8
0
 10
319.27943907
 20
361.32857688
 42
-0.22460784
  0
VERTEX
  8
0
 10
319.19542222
 20
359.85254772
 42
-0.22460784
  0
VERTEX
  8
0
 10
318.00096963
 20
358.98133799
 42
-0.09442374
  0
VERTEX
  8
0
 10
275.97805287
 20
358.98134239
 42
-0.22460819
  0
VERTEX
  8
0
 10
274.78359953
 20
359.85254845
 42
-0.22460819
  0
VERTEX
  8
0
 10
274.69958259
 20
361.32857688
 42
0.28542075
  0
VERTEX
  8
0
 10
266.69540466
 20
407.67052995
 42
0.28542075
  0
VERTEX
  8
0
 10
221.59953605
 20
421.01242313
 42
-0.28374787
  0
VERTEX
  8
0
 10
215.32995343
 20
424.67876125
 42
-0.22706835
  0
VERTEX
  8
0
 10
208.14059891
 20
595.28084940
 42
-0.19602560
  0
VERTEX
  8
0
 10
209.99785802
 20
597.11524589
 42
-0.03757257
  0
VERTEX
  8
0
 10
228.54279849
 20
603.19819803
 42
-0.29388431
  0
VERTEX
  8
0
 10
232.08205982
 20
601.98658551
 42
-0.29388431
  0
VERTEX
  8
0
 10
232.44666619
 20
598.26349031
 42
0.21310266
  0
VERTEX
  8
0
 10
224.64050943
 20
454.19442534
 42
0.20144495
  0
VERTEX
  8
0
 10
246.12223520
 20
443.91519760
  0
VERTEX
  8
0
 10
246.81344485
 20
443.88926954
  0
VERTEX
  8
0
 10
247.50497535
 20
443.87889364
  0
VERTEX
  8
0
 10
248.19656431
 20
443.88407089
  0
VERTEX
  8
0
 10
248.88794934
 20
443.90480228
  0
SEQEND
  0
POLYLINE
  8
WHITE
 66
   1
 39
0.000000
 70
    1
  0
VERTEX
  8
0
 10
364.83242683
 20
99.30838670
 42
0.40614014
  0
VERTEX
  8
0
 10
407.60761092
 20
102.40647203
 42
0.26370879
  0
VERTEX
  8
0
 10
381.54836847
 20
274.96490895
 42
-0.26401247
  0
VERTEX
  8
0
 10
381.29450625
 20
276.65243046
 42
-0.26401247
  0
VERTEX
  8
0
 10
382.61322581
 20
277.73555253
 42
-0.14278150
  0
VERTEX
  8
0
 10
404.78017372
 20
275.23631632
 42
-0.15418902
  0
VERTEX
  8
0
 10
409.55138157
 20
271.20217420
 42
-0.26913515
  0
VERTEX
  8
0
 10
416.91816692
 20
72.89080794
 42
-0.28374784
  0
VERTEX
  8
0
 10
410.64858501
 20
69.22447052
 42
0.29403863
  0
VERTEX
  8
0
 10
365.56742751
 20
56.24749945
 42
0.29403863
  0
VERTEX
  8
0
 10
358.71472276
 20
9.83895449
 42
-0.22846167
  0
VERTEX
  8
0
 10
358.67890736
 20
8.33809192
 42
-0.22846167
  0
VERTEX
  8
0
 10
357.48240291
 20
7.43131167
 42
-0.09996485
  0
VERTEX
  8
0
 10
313.04087890
 20
7.43008731
 42
-0.22880771
  0
VERTEX
  8
0
 10
311.84328831
 20
8.33882337
 42
-0.22880771
  0
VERTEX
  8
0
 10
311.81030486
 20
9.84179921
 42
0.29476454
  0
VERTEX
  8
0
 10
305.00893802
 20
56.30055326
 42
0.29476454
  0
VERTEX
  8
0
 10
259.86863551
 20
69.22447068
 42
-0.28374790
  0
VERTEX
  8
0
 10
253.59905200
 20
72.89080793
 42
-0.26740322
  0
VERTEX
  8
0
 10
260.28750811
 20
270.11952735
 42
-0.15574129
  0
VERTEX
  8
0
 10
265.09048498
 20
274.20886946
 42
-0.15411618
  0
VERTEX
  8
0
 10
286.78002279
 20
276.17694512
 42
-0.25668459
  0
VERTEX
  8
0
 10
288.03419194
 20
275.08170108
 42
-0.25668459
  0
VERTEX
  8
0
 10
287.78190600
 20
273.43584138
 42
0.26078586
  0
VERTEX
  8
0
 10
262.90960920
 20
102.40647308
 42
0.23187676
  0
VERTEX
  8
0
 10
287.96467492
 20
92.16080501
 42
0.23187676
  0
VERTEX
  8
0
 10
311.41218828
 20
105.68649104
 42
-0.27614942
  0
VERTEX
  8
0
 10
329.74089449
 20
114.19722011
 42
-0.38402604
  0
VERTEX
  8
0
 10
332.83860952
 20
110.75881400
  0
VERTEX
  8
0
 10
332.83860952
 20
70.34675691
 42
0.41421356
  0
VERTEX
  8
0
 10
333.53003809
 20
69.65532834
  0
VERTEX
  8
0
 10
338.19718095
 20
69.65532834
 42
0.41421356
  0
VERTEX
  8
0
 10
338.88860952
 20
70.34675691
  0
VERTEX
  8
0
 10
338.88860952
 20
110.83975263
 42
-0.40561973
  0
VERTEX
  8
0
 10
342.24402313
 20
114.29539751
 42
-0.25614444
  0
VERTEX
  8
0
 10
359.10502945
 20
105.68649009
 42
0.04745511
  0
VERTEX
  8
0
 10
362.79780831
 20
101.18213355
  0
VERTEX
  8
0
 10
363.29055946
 20
100.69662165
  0
VERTEX
  8
0
 10
363.79404160
 20
100.22237465
  0
VERTEX
  8
0
 10
364.30806173
 20
99.75957038
  0
VERTEX
  8
0
 10
364.83242683
 20
99.30838670
  0
SEQEND
  0
POLYLINE
  8
WHITE
 66
   1
 39
0.000000
 70
    1
  0
VERTEX
  8
0
 10
343.43681535
 20
940.74315245
 42
0.24970052
  0
VERTEX
  8
0
 10
295.38398344
 20
868.03488949
 42
-0.12983304
  0
VERTEX
  8
0
 10
294.77386339
 20
866.37801015
 42
-0.41960954
  0
VERTEX
  8
0
 10
253.43446045
 20
859.48782760
 42
-0.35146020
  0
VERTEX
  8
0
 10
250.94765448
 20
865.82159797
 42
-0.35146020
  0
VERTEX
  8
0
 10
256.59027158
 20
869.62445331
 42
0.21289361
  0
VERTEX
  8
0
 10
276.93323164
 20
895.01487888
 42
0.25049293
  0
VERTEX
  8
0
 10
264.28950999
 20
1001.20917868
 42
-0.38845396
  0
VERTEX
  8
0
 10
264.59582989
 20
1003.52271837
  0
VERTEX
  8
0
 10
281.10495449
 20
1017.37551748
 42
-0.41421329
  0
VERTEX
  8
0
 10
282.07906112
 20
1017.29029197
  0
VERTEX
  8
0
 10
307.35011201
 20
987.17342129
 42
0.41421360
  0
VERTEX
  8
0
 10
308.32421881
 20
987.08819803
  0
VERTEX
  8
0
 10
311.89945787
 20
990.08818232
 42
0.41421323
  0
VERTEX
  8
0
 10
311.98468129
 20
991.06228703
  0
VERTEX
  8
0
 10
286.71362752
 20
1021.17915778
 42
-0.41421347
  0
VERTEX
  8
0
 10
286.79885280
 20
1022.15326469
  0
VERTEX
  8
0
 10
304.13776407
 20
1036.70234107
 42
-0.40153159
  0
VERTEX
  8
0
 10
306.52346762
 20
1036.54580094
 42
0.09755597
  0
VERTEX
  8
0
 10
352.08029559
 20
1003.00227593
 42
0.08650108
  0
VERTEX
  8
0
 10
485.08886699
 20
981.47927734
 42
0.15949017
  0
VERTEX
  8
0
 10
500.36509467
 20
986.10329000
 42
-0.28836969
  0
VERTEX
  8
0
 10
504.04231505
 20
986.28264789
 42
-0.21076195
  0
VERTEX
  8
0
 10
510.72745349
 20
977.35205414
 42
-0.21076195
  0
VERTEX
  8
0
 10
508.63920152
 20
966.39368762
 42
-0.09389412
  0
VERTEX
  8
0
 10
480.81737744
 20
935.30788367
 42
-0.28247936
  0
VERTEX
  8
0
 10
477.21889193
 20
934.93629614
 42
0.19451574
  0
VERTEX
  8
0
 10
348.16861875
 20
943.13955564
 42
0.00665725
  0
VERTEX
  8
0
 10
345.94977913
 20
942.05815885
  0
VERTEX
  8
0
 10
344.68826782
 20
941.41026679
  0
VERTEX
  8
0
 10
343.43681535
 20
940.74315245
  0
SEQEND
  0
POLYLINE
  8
WHITE
 66
   1
 39
0.000000
 70
    1
  0
VERTEX
  8
0
 10
403.91688932
 20
647.40490412
 42
0.22865924
  0
VERTEX
  8
0
 10
380.84423072
 20
633.90687192
 42
-0.29437188
  0
VERTEX
  8
0
 10
361.20119742
 20
625.57848899
 42
-0.36481256
  0
VERTEX
  8
0
 10
360.62780832
 20
626.25976731
  0
VERTEX
  8
0
 10
360.62780832
 20
669.24660760
 42
0.41421339
  0
VERTEX
  8
0
 10
359.93637975
 20
669.93803617
  0
VERTEX
  8
0
 10
355.26923685
 20
669.93803617
 42
0.41421355
  0
VERTEX
  8
0
 10
354.57780832
 20
669.24660760
  0
VERTEX
  8
0
 10
354.57780832
 20
626.51019234
 42
-0.34649248
  0
VERTEX
  8
0
 10
354.04845538
 20
625.83803227
 42
-0.31213043
  0
VERTEX
  8
0
 10
333.15138708
 20
633.90687348
 42
0.23187676
  0
VERTEX
  8
0
 10
309.70387372
 20
647.43255950
 42
0.23187676
  0
VERTEX
  8
0
 10
284.64880692
 20
637.18689249
 42
0.18340327
  0
VERTEX
  8
0
 10
284.26972264
 20
511.60026690
 42
-0.27259929
  0
VERTEX
  8
0
 10
283.96856034
 20
509.87185314
 42
-0.27259929
  0
VERTEX
  8
0
 10
282.31091801
 20
509.29710691
 42
-0.13551001
  0
VERTEX
  8
0
 10
259.44843756
 20
520.84985787
 42
-0.19240506
  0
VERTEX
  8
0
 10
275.33825386
 20
666.70255496
 42
-0.28374787
  0
VERTEX
  8
0
 10
281.60783350
 20
670.36889039
 42
0.28200613
  0
VERTEX
  8
0
 10
326.32674521
 20
683.29244371
 42
0.28200613
  0
VERTEX
  8
0
 10
335.11763964
 20
729.00370540
 42
-0.21391875
  0
VERTEX
  8
0
 10
335.97071034
 20
731.70074951
 42
-0.21391875
  0
VERTEX
  8
0
 10
338.55188670
 20
732.85803378
 42
-0.08272414
  0
VERTEX
  8
0
 10
375.44372992
 20
732.85803271
 42
-0.21391875
  0
VERTEX
  8
0
 10
378.02490630
 20
731.70074951
 42
-0.21391875
  0
VERTEX
  8
0
 10
378.87797669
 20
729.00370541
 42
0.28200613
  0
VERTEX
  8
0
 10
387.66887142
 20
683.29244371
 42
0.28200613
  0
VERTEX
  8
0
 10
432.38778310
 20
670.36889124
 42
-0.28374787
  0
VERTEX
  8
0
 10
438.65736572
 20
666.70255657
 42
-0.19240506
  0
VERTEX
  8
0
 10
454.54717887
 20
520.84985834
 42
-0.13551001
  0
VERTEX
  8
0
 10
431.68469873
 20
509.29710643
 42
-0.27259927
  0
VERTEX
  8
0
 10
430.02705623
 20
509.87185322
 42
-0.27259927
  0
VERTEX
  8
0
 10
429.72589343
 20
511.60026710
 42
0.18340327
  0
VERTEX
  8
0
 10
429.34680864
 20
637.18689144
 42
0.21147220
  0
VERTEX
  8
0
 10
406.68260315
 20
647.50101942
  0
VERTEX
  8
0
 10
405.99049483
 20
647.50033913
  0
VERTEX
  8
0
 10
405.29866463
 20
647.48408662
  0
VERTEX
  8
0
 10
404.60737523
 20
647.45227168
  0
VERTEX
  8
0
 10
403.91688932
 20
647.40490412
  0
SEQEND
  0
POLYLINE
  8
WHITE
 66
   1
 39
0.000000
 70
    1
  0
VERTEX
  8
0
 10
444.02115663
 20
309.73092456
 42
0.21466994
  0
VERTEX
  8
0
 10
422.57930725
 20
296.40708717
 42
-0.29437188
  0
VERTEX
  8
0
 10
402.93627483
 20
288.07869973
 42
-0.36481256
  0
VERTEX
  8
0
 10
402.36288286
 20
288.75998146
  0
VERTEX
  8
0
 10
402.36288632
 20
331.74682174
 42
0.41421355
  0
VERTEX
  8
0
 10
401.67145778
 20
332.43825031
  0
VERTEX
  8
0
 10
397.00431489
 20
332.43825031
 42
0.41421353
  0
VERTEX
  8
0
 10
396.31288632
 20
331.74682178
  0
VERTEX
  8
0
 10
396.31288632
 20
289.01040648
 42
-0.34649248
  0
VERTEX
  8
0
 10
395.78353417
 20
288.33824232
 42
-0.31213043
  0
VERTEX
  8
0
 10
374.88646353
 20
296.40708663
 42
0.23187676
  0
VERTEX
  8
0
 10
351.43895172
 20
309.93277364
 42
0.23187676
  0
VERTEX
  8
0
 10
326.38388492
 20
299.68710663
 42
0.21621407
  0
VERTEX
  8
0
 10
335.16219333
 20
153.75073016
 42
-0.26515218
  0
VERTEX
  8
0
 10
335.05113137
 20
150.32671010
 42
-0.26515218
  0
VERTEX
  8
0
 10
332.04735445
 20
148.67941558
 42
-0.16982778
  0
VERTEX
  8
0
 10
311.76939088
 20
156.15509832
 42
-0.11998512
  0
VERTEX
  8
0
 10
309.80966971
 20
158.77449398
 42
-0.22681699
  0
VERTEX
  8
0
 10
317.07332880
 20
329.20277073
 42
-0.28374784
  0
VERTEX
  8
0
 10
323.34291086
 20
332.86910801
 42
0.29403863
  0
VERTEX
  8
0
 10
368.42406808
 20
345.84607893
 42
0.29403863
  0
VERTEX
  8
0
 10
375.27677059
 20
392.25462202
 42
-0.22846201
  0
VERTEX
  8
0
 10
375.31258497
 20
393.75548664
 42
-0.22846201
  0
VERTEX
  8
0
 10
376.50909100
 20
394.66226660
 42
-0.09996486
  0
VERTEX
  8
0
 10
420.95061691
 20
394.66349122
 42
-0.22880780
  0
VERTEX
  8
0
 10
422.14820779
 20
393.75475476
 42
-0.22880780
  0
VERTEX
  8
0
 10
422.18119049
 20
392.25177837
 42
0.29476453
  0
VERTEX
  8
0
 10
428.98256092
 20
345.79302711
 42
0.29476453
  0
VERTEX
  8
0
 10
474.12286033
 20
332.86910797
 42
-0.28374786
  0
VERTEX
  8
0
 10
480.39244372
 20
329.20277072
 42
-0.22511832
  0
VERTEX
  8
0
 10
488.15407818
 20
159.95147340
 42
-0.20092708
  0
VERTEX
  8
0
 10
484.34626473
 20
156.20562314
 42
-0.03470839
  0
VERTEX
  8
0
 10
467.17959659
 20
150.68333287
 42
-0.29388442
  0
VERTEX
  8
0
 10
463.64033372
 20
151.89494665
 42
-0.29388442
  0
VERTEX
  8
0
 10
463.27572822
 20
155.61804306
 42
0.21310266
  0
VERTEX
  8
0
 10
471.08188664
 20
299.68710558
 42
0.22536525
  0
VERTEX
  8
0
 10
446.78687098
 20
309.97473046
  0
VERTEX
  8
0
 10
446.09351006
 20
309.93721077
  0
VERTEX
  8
0
 10
445.40126107
 20
309.88405434
  0
VERTEX
  8
0
 10
444.71038845
 20
309.81528449
  0
VERTEX
  8
0
 10
444.02115663
 20
309.73092456
  0
SEQEND
  0
POLYLINE
  8
WHITE
 66
   1
 39
0.000000
 70
    1
  0
VERTEX
  8
0
 10
546.09567436
 20
798.84430070
 42
0.07639783
  0
VERTEX
  8
0
 10
522.29134253
 20
739.64610652
 42
-0.41036087
  0
VERTEX
  8
0
 10
501.74433077
 20
726.70233455
  0
VERTEX
  8
0
 10
423.33726832
 20
743.96051563
 42
-0.24980916
  0
VERTEX
  8
0
 10
427.57586450
 20
769.59515647
 42
-0.32762020
  0
VERTEX
  8
0
 10
428.36133006
 20
769.82453874
  0
VERTEX
  8
0
 10
465.50592043
 20
756.30501514
 42
0.41421329
  0
VERTEX
  8
0
 10
466.39213307
 20
756.71826438
  0
VERTEX
  8
0
 10
467.98838755
 20
761.10394429
 42
0.41421322
  0
VERTEX
  8
0
 10
467.57514178
 20
761.99015692
  0
VERTEX
  8
0
 10
430.81200875
 20
775.37083994
 42
-0.32201592
  0
VERTEX
  8
0
 10
430.35727031
 20
776.03743484
 42
0.24251671
  0
VERTEX
  8
0
 10
401.51155471
 20
835.53159034
 42
-0.32849355
  0
VERTEX
  8
0
 10
405.00562105
 20
878.32268801
 42
-0.38325308
  0
VERTEX
  8
0
 10
405.92290338
 20
878.43568754
  0
VERTEX
  8
0
 10
440.19281723
 20
854.51436783
 42
0.41421329
  0
VERTEX
  8
0
 10
441.15553884
 20
854.68557490
  0
VERTEX
  8
0
 10
443.82690012
 20
858.51259503
 42
0.41421336
  0
VERTEX
  8
0
 10
443.65569290
 20
859.47531674
  0
VERTEX
  8
0
 10
409.60866018
 20
883.24105734
 42
-0.32556523
  0
VERTEX
  8
0
 10
409.34337863
 20
884.01075305
 42
-0.35658782
  0
VERTEX
  8
0
 10
463.92111666
 20
920.40803964
  0
VERTEX
  8
0
 10
526.22072722
 20
897.73283829
 42
-0.41421318
  0
VERTEX
  8
0
 10
526.63397457
 20
896.84662594
  0
VERTEX
  8
0
 10
504.85955940
 20
837.02190603
 42
0.41421357
  0
VERTEX
  8
0
 10
505.27280543
 20
836.13569330
  0
VERTEX
  8
0
 10
509.65848855
 20
834.53943546
 42
0.41421333
  0
VERTEX
  8
0
 10
510.54470127
 20
834.95268493
  0
VERTEX
  8
0
 10
532.31841611
 20
894.77548295
 42
-0.41507828
  0
VERTEX
  8
0
 10
533.20654570
 20
895.18802964
  0
VERTEX
  8
0
 10
636.46041780
 20
857.26104363
 42
-0.20318643
  0
VERTEX
  8
0
 10
638.42938428
 20
855.41593895
 42
-0.20392471
  0
VERTEX
  8
0
 10
638.62704353
 20
841.89152975
 42
-0.20392471
  0
VERTEX
  8
0
 10
629.01841552
 20
832.37191942
 42
-0.18285841
  0
VERTEX
  8
0
 10
626.57190231
 20
832.33108081
 42
0.30540481
  0
VERTEX
  8
0
 10
556.39467656
 20
814.57730513
 42
0.01909988
  0
VERTEX
  8
0
 10
547.52200035
 20
801.21615544
  0
VERTEX
  8
0
 10
546.09567436
 20
798.84430070
  0
SEQEND
  0
POLYLINE
  8
WHITE
 66
   1
 39
0.000000
 70
    1
  0
VERTEX
  8
0
 10
476.36434635
 20
9.84385983
  0
VERTEX
  8
0
 10
446.62590669
 20
9.84385983
 42
-0.29588263
  0
VERTEX
  8
0
 10
443.46936289
 20
11.89101405
 42
0.14663086
  0
VERTEX
  8
0
 10
427.27688421
 20
30.68098057
 42
-0.35461503
  0
VERTEX
  8
0
 10
425.90286220
 20
34.81464030
  0
VERTEX
  8
0
 10
437.94835021
 20
66.75314327
 42
-0.20654686
  0
VERTEX
  8
0
 10
443.65757546
 20
72.66437253
 42
-0.10329536
  0
VERTEX
  8
0
 10
468.23101136
 20
77.37897750
 42
-0.23141942
  0
VERTEX
  8
0
 10
468.77233098
 20
77.10323227
 42
-0.23141942
  0
VERTEX
  8
0
 10
468.88706146
 20
76.50665949
  0
VERTEX
  8
0
 10
460.74641655
 20
46.48979537
 42
0.41421308
  0
VERTEX
  8
0
 10
461.23275904
 20
45.64149445
  0
VERTEX
  8
0
 10
465.73718946
 20
44.41988294
 42
0.41421498
  0
VERTEX
  8
0
 10
466.58549414
 20
44.90622653
  0
VERTEX
  8
0
 10
485.53571075
 20
114.78105106
 42
-0.33860903
  0
VERTEX
  8
0
 10
488.87232723
 20
117.33329714
  0
VERTEX
  8
0
 10
518.21167432
 20
117.33329714
 42
-0.33279652
  0
VERTEX
  8
0
 10
521.52865423
 20
114.85056729
  0
VERTEX
  8
0
 10
542.26264726
 20
44.27047560
 42
0.41421398
  0
VERTEX
  8
0
 10
543.12092927
 20
43.80195900
  0
VERTEX
  8
0
 10
547.59884752
 20
45.11742374
 42
0.41421313
  0
VERTEX
  8
0
 10
548.06736107
 20
45.97570039
  0
VERTEX
  8
0
 10
539.13871279
 20
76.36949693
 42
-0.40580420
  0
VERTEX
  8
0
 10
539.58820955
 20
77.22189185
 42
-0.34082997
  0
VERTEX
  8
0
 10
573.26748665
 20
65.21554462
  0
VERTEX
  8
0
 10
581.19004818
 20
36.17917449
 42
-0.28749962
  0
VERTEX
  8
0
 10
560.06322000
 20
9.84386329
  0
VERTEX
  8
0
 10
509.77120523
 20
9.84385983
 42
-0.34133809
  0
VERTEX
  8
0
 10
509.10214329
 20
10.36084761
  0
VERTEX
  8
0
 10
501.96017123
 20
37.75380626
 42
0.41421302
  0
VERTEX
  8
0
 10
501.11667083
 20
38.24842801
  0
VERTEX
  8
0
 10
496.60050043
 20
37.07096177
 42
0.41421374
  0
VERTEX
  8
0
 10
496.10587879
 20
36.22746096
  0
VERTEX
  8
0
 10
502.75893230
 20
10.70972509
 42
-0.23227683
  0
VERTEX
  8
0
 10
502.63699195
 20
10.11252441
 42
-0.23227683
  0
VERTEX
  8
0
 10
502.08987286
 20
9.84385983
  0
VERTEX
  8
0
 10
479.13006063
 20
9.84385983
  0
VERTEX
  8
0
 10
476.36434635
 20
9.84385983
  0
SEQEND
  0
POLYLINE
  8
WHITE
 66
   1
 39
0.000000
 70
    1
  0
VERTEX
  8
0
 10
494.61080493
 20
370.10095568
 42
0.07306114
  0
VERTEX
  8
0
 10
485.25670549
 20
371.51799369
  0
VERTEX
  8
0
 10
475.31724357
 20
377.36494894
 42
-0.22062733
  0
VERTEX
  8
0
 10
474.82099856
 20
378.08295066
 42
-0.22062733
  0
VERTEX
  8
0
 10
475.04861309
 20
378.92555146
  0
VERTEX
  8
0
 10
488.45447275
 20
394.90203537
 42
0.41421356
  0
VERTEX
  8
0
 10
488.36925072
 20
395.87614414
  0
VERTEX
  8
0
 10
484.79401186
 20
398.87612480
 42
0.41421356
  0
VERTEX
  8
0
 10
483.81990655
 20
398.79089931
  0
VERTEX
  8
0
 10
470.02076540
 20
382.34572529
 42
-0.22062727
  0
VERTEX
  8
0
 10
469.49391481
 20
382.09874416
 42
-0.22062727
  0
VERTEX
  8
0
 10
468.96507189
 20
382.34142986
  0
VERTEX
  8
0
 10
460.41949044
 20
392.35889173
 42
0.16487631
  0
VERTEX
  8
0
 10
450.29468619
 20
410.63821691
 42
-0.26802943
  0
VERTEX
  8
0
 10
449.97931419
 20
411.62652869
 42
-0.31732908
  0
VERTEX
  8
0
 10
463.55294963
 20
424.05491404
 42
0.25554558
  0
VERTEX
  8
0
 10
486.34415369
 20
422.70643032
  0
VERTEX
  8
0
 10
500.68748657
 20
436.09771238
 42
-0.31412543
  0
VERTEX
  8
0
 10
501.86161604
 20
436.26598825
 42
-0.11639891
  0
VERTEX
  8
0
 10
521.30040919
 20
419.95490691
 42
-0.31412566
  0
VERTEX
  8
0
 10
521.33857015
 20
418.76938909
  0
VERTEX
  8
0
 10
510.64143032
 20
402.31859554
 42
0.25554558
  0
VERTEX
  8
0
 10
515.92708064
 20
380.10780341
 42
-0.31732898
  0
VERTEX
  8
0
 10
506.04454865
 20
364.58221096
 42
-0.26803126
  0
VERTEX
  8
0
 10
505.01648082
 20
364.72118052
 42
0.06860521
  0
VERTEX
  8
0
 10
497.30700580
 20
369.14671811
  0
VERTEX
  8
0
 10
496.64094315
 20
369.40745810
  0
VERTEX
  8
0
 10
495.96939262
 20
369.65346866
  0
VERTEX
  8
0
 10
495.29259847
 20
369.88466334
  0
VERTEX
  8
0
 10
494.61080493
 20
370.10095568
  0
SEQEND
  0
POLYLINE
  8
WHITE
 66
   1
 39
0.000000
 70
    1
  0
VERTEX
  8
0
 10
648.37350258
 20
1218.88474638
 42
0.03506793
  0
VERTEX
  8
0
 10
687.64639654
 20
1192.91371419
 42
-0.22179024
  0
VERTEX
  8
0
 10
703.29470698
 20
1193.18720483
 42
-0.22179024
  0
VERTEX
  8
0
 10
713.55844760
 20
1181.37195823
  0
VERTEX
  8
0
 10
718.95561374
 20
1187.76816247
 42
-0.33408519
  0
VERTEX
  8
0
 10
722.93832555
 20
1196.77227260
 42
-0.33408519
  0
VERTEX
  8
0
 10
732.69386985
 20
1195.44361516
 42
0.11075824
  0
VERTEX
  8
0
 10
861.44799253
 20
1274.13061213
 42
-0.31038048
  0
VERTEX
  8
0
 10
879.23717212
 20
1273.78769609
  0
VERTEX
  8
0
 10
923.62763571
 20
1269.46993318
 42
-0.24890834
  0
VERTEX
  8
0
 10
930.20904632
 20
1262.09253736
 42
-0.24890834
  0
VERTEX
  8
0
 10
927.78833367
 20
1252.50707519
 42
0.24185565
  0
VERTEX
  8
0
 10
926.97398842
 20
1249.45412281
 42
0.20999194
  0
VERTEX
  8
0
 10
965.59105543
 20
1196.25496514
  0
VERTEX
  8
0
 10
965.33460112
 20
1144.13236903
  0
VERTEX
  8
0
 10
961.53493492
 20
1136.30706740
  0
VERTEX
  8
0
 10
964.21389640
 20
1130.77754068
 42
-0.37839882
  0
VERTEX
  8
0
 10
962.98267703
 20
1126.36892783
 42
-0.35905022
  0
VERTEX
  8
0
 10
947.31811053
 20
1119.45281146
 42
-0.35905022
  0
VERTEX
  8
0
 10
937.54079740
 20
1133.51038749
  0
VERTEX
  8
0
 10
937.84911706
 20
1152.80308998
 42
-0.09486654
  0
VERTEX
  8
0
 10
919.35471128
 20
1184.94919186
 42
-0.38904284
  0
VERTEX
  8
0
 10
899.56245520
 20
1207.36686995
 42
-0.26147699
  0
VERTEX
  8
0
 10
896.09252765
 20
1213.23951225
 42
-0.15763786
  0
VERTEX
  8
0
 10
875.87507048
 20
1214.58860340
 42
-0.23629939
  0
VERTEX
  8
0
 10
861.84137050
 20
1212.85543898
 42
-0.06518281
  0
VERTEX
  8
0
 10
741.12545821
 20
1134.07613187
 42
-0.22170090
  0
VERTEX
  8
0
 10
731.10551901
 20
1119.88011091
 42
-0.22170090
  0
VERTEX
  8
0
 10
713.79000856
 20
1118.43121415
 42
-0.35151195
  0
VERTEX
  8
0
 10
689.03583599
 20
1125.07501572
 42
0.32213791
  0
VERTEX
  8
0
 10
671.80499180
 20
1143.74093726
 42
-0.09490168
  0
VERTEX
  8
0
 10
584.43311917
 20
1213.52396873
 42
-0.31389665
  0
VERTEX
  8
0
 10
555.10051749
 20
1220.34454770
 42
-0.39958179
  0
VERTEX
  8
0
 10
533.27970235
 20
1213.68698960
 42
0.23878109
  0
VERTEX
  8
0
 10
522.86509569
 20
1210.97648591
 42
0.23878109
  0
VERTEX
  8
0
 10
518.88725041
 20
1200.97710506
 42
0.17442097
  0
VERTEX
  8
0
 10
531.16297085
 20
1146.89697980
 42
-0.39734568
  0
VERTEX
  8
0
 10
530.27673923
 20
1142.23498096
 42
-0.36657726
  0
VERTEX
  8
0
 10
498.82955314
 20
1144.63664426
 42
0.10768418
  0
VERTEX
  8
0
 10
463.85083073
 20
1196.54908674
 42
-0.20053409
  0
VERTEX
  8
0
 10
456.27952547
 20
1254.44130381
 42
-0.33834665
  0
VERTEX
  8
0
 10
456.94667775
 20
1254.95112480
  0
VERTEX
  8
0
 10
498.17670520
 20
1254.95112480
 42
0.41421355
  0
VERTEX
  8
0
 10
498.86813378
 20
1255.64255334
  0
VERTEX
  8
0
 10
498.86813378
 20
1260.30969623
 42
0.41421354
  0
VERTEX
  8
0
 10
498.17670520
 20
1261.00112480
  0
VERTEX
  8
0
 10
457.11797572
 20
1261.00112480
 42
-0.34389307
  0
VERTEX
  8
0
 10
456.44734834
 20
1261.52423962
 42
-0.19769754
  0
VERTEX
  8
0
 10
464.08129365
 20
1314.00041546
 42
-0.20378694
  0
VERTEX
  8
0
 10
485.88180181
 20
1330.02626602
 42
-0.14653353
  0
VERTEX
  8
0
 10
534.24653385
 20
1327.16171516
 42
-0.30472541
  0
VERTEX
  8
0
 10
535.38091242
 20
1325.60283359
 42
0.36782979
  0
VERTEX
  8
0
 10
564.12704353
 20
1294.27415284
 42
-0.24929502
  0
VERTEX
  8
0
 10
592.44759813
 20
1289.19274240
 42
-0.24929502
  0
VERTEX
  8
0
 10
604.07483615
 20
1262.87389339
 42
0.20730333
  0
VERTEX
  8
0
 10
605.88829619
 20
1257.68444906
 42
0.04081695
  0
VERTEX
  8
0
 10
646.18475903
 20
1220.57818656
  0
VERTEX
  8
0
 10
648.37350258
 20
1218.88474638
  0
SEQEND
  0
POLYLINE
  8
WHITE
 66
   1
 39
0.000000
 70
    1
  0
VERTEX
  8
0
 10
677.96306161
 20
496.93184866
 42
0.30640092
  0
VERTEX
  8
0
 10
717.04777553
 20
688.84237238
 42
-0.26649495
  0
VERTEX
  8
0
 10
717.48414242
 20
692.25546587
 42
-0.26649495
  0
VERTEX
  8
0
 10
720.65089121
 20
693.60132564
 42
-0.28031349
  0
VERTEX
  8
0
 10
742.71006203
 20
676.28171552
 42
-0.27287554
  0
VERTEX
  8
0
 10
684.85431772
 20
437.75995220
 42
-0.38486931
  0
VERTEX
  8
0
 10
675.60294630
 20
437.15532500
 42
0.33129650
  0
VERTEX
  8
0
 10
624.15251690
 20
438.68359571
 42
0.33129650
  0
VERTEX
  8
0
 10
607.92043194
 20
389.83687882
 42
-0.24991055
  0
VERTEX
  8
0
 10
607.36761572
 20
386.63144586
 42
-0.24991055
  0
VERTEX
  8
0
 10
604.39814015
 20
385.30380728
 42
-0.05263826
  0
VERTEX
  8
0
 10
557.92196175
 20
393.49881260
 42
-0.24991060
  0
VERTEX
  8
0
 10
555.58564571
 20
395.76200532
 42
-0.24991060
  0
VERTEX
  8
0
 10
556.16249005
 20
398.96320268
 42
0.33129650
  0
VERTEX
  8
0
 10
557.61587914
 20
450.41580201
 42
0.33129650
  0
VERTEX
  8
0
 10
508.74559153
 20
466.57677927
 42
-0.38486929
  0
VERTEX
  8
0
 10
500.25894093
 20
470.30909613
 42
-0.27287554
  0
VERTEX
  8
0
 10
527.47157395
 20
714.23406719
 42
-0.28031348
  0
VERTEX
  8
0
 10
554.12406567
 20
722.96449304
 42
-0.26649512
  0
VERTEX
  8
0
 10
556.63952762
 20
720.61670998
 42
-0.26649512
  0
VERTEX
  8
0
 10
555.88222883
 20
717.26020395
 42
0.31776691
  0
VERTEX
  8
0
 10
530.23395550
 20
517.09030321
 42
0.39320576
  0
VERTEX
  8
0
 10
565.83164688
 20
504.75339489
 42
-0.12157984
  0
VERTEX
  8
0
 10
598.83477292
 20
510.54398251
  0
VERTEX
  8
0
 10
590.43020280
 20
462.87928914
  0
VERTEX
  8
0
 10
596.38829120
 20
461.82871874
  0
VERTEX
  8
0
 10
604.81342404
 20
509.61003151
 42
-0.12599367
  0
VERTEX
  8
0
 10
635.01677763
 20
492.55419254
 42
0.39320577
  0
VERTEX
  8
0
 10
672.68713088
 20
491.97196880
 42
0.00640163
  0
VERTEX
  8
0
 10
675.97236331
 20
495.01180208
  0
VERTEX
  8
0
 10
677.96306161
 20
496.93184866
  0
SEQEND
  0
POLYLINE
  8
WHITE
 66
   1
 39
0.000000
 70
    1
  0
VERTEX
  8
0
 10
634.41680287
 20
118.90634632
 42
0.09008126
  0
VERTEX
  8
0
 10
658.45637889
 20
122.65871892
 42
0.12778714
  0
VERTEX
  8
0
 10
665.68645280
 20
127.48622384
 42
-0.20481880
  0
VERTEX
  8
0
 10
691.95658471
 20
139.81723296
 42
-0.20344047
  0
VERTEX
  8
0
 10
692.46098167
 20
139.62357367
 42
-0.20344047
  0
VERTEX
  8
0
 10
692.67208100
 20
139.12622340
  0
VERTEX
  8
0
 10
692.67208100
 20
92.12663588
 42
0.41421353
  0
VERTEX
  8
0
 10
693.36350953
 20
91.43520734
  0
VERTEX
  8
0
 10
698.03065243
 20
91.43520734
 42
0.41421336
  0
VERTEX
  8
0
 10
698.72208100
 20
92.12663547
  0
VERTEX
  8
0
 10
698.72208100
 20
139.14813481
 42
-0.41462270
  0
VERTEX
  8
0
 10
699.41447505
 20
139.83956191
 42
-0.21353871
  0
VERTEX
  8
0
 10
726.91770315
 20
127.48622184
 42
0.12778714
  0
VERTEX
  8
0
 10
734.14777824
 20
122.65871575
 42
0.26806938
  0
VERTEX
  8
0
 10
801.02983573
 20
135.47315998
 42
0.10522130
  0
VERTEX
  8
0
 10
807.97900021
 20
144.65241022
 42
0.31463565
  0
VERTEX
  8
0
 10
776.54526058
 20
326.32168964
 42
-0.29327268
  0
VERTEX
  8
0
 10
774.20502415
 20
337.27759903
 42
-0.29327268
  0
VERTEX
  8
0
 10
783.18998748
 20
343.96931220
 42
-0.10235087
  0
VERTEX
  8
0
 10
793.96969489
 20
342.51179961
 42
-0.12098004
  0
VERTEX
  8
0
 10
798.10952897
 20
339.80438779
 42
-0.39378722
  0
VERTEX
  8
0
 10
798.24970429
 20
86.31257846
 42
-0.32728804
  0
VERTEX
  8
0
 10
778.17152762
 20
82.48296689
 42
0.31007586
  0
VERTEX
  8
0
 10
732.93300834
 20
75.31132966
 42
0.31007586
  0
VERTEX
  8
0
 10
723.34559691
 20
30.52251828
 42
-0.25019146
  0
VERTEX
  8
0
 10
723.02104889
 20
27.28275380
 42
-0.25019146
  0
VERTEX
  8
0
 10
720.14867760
 20
25.74949260
 42
-0.11561609
  0
VERTEX
  8
0
 10
672.45548440
 20
25.74948960
 42
-0.25019141
  0
VERTEX
  8
0
 10
669.58311061
 20
27.28275133
 42
-0.25019141
  0
VERTEX
  8
0
 10
669.25856025
 20
30.52251883
 42
0.31007586
  0
VERTEX
  8
0
 10
659.67115022
 20
75.31132966
 42
0.31007586
  0
VERTEX
  8
0
 10
614.43263093
 20
82.48296689
 42
-0.32728804
  0
VERTEX
  8
0
 10
594.35445553
 20
86.31257961
 42
-0.39378722
  0
VERTEX
  8
0
 10
594.49462971
 20
339.80438767
 42
-0.12098004
  0
VERTEX
  8
0
 10
598.63446305
 20
342.51180139
 42
-0.10235087
  0
VERTEX
  8
0
 10
609.41417114
 20
343.96931608
 42
-0.29327268
  0
VERTEX
  8
0
 10
618.39913440
 20
337.27759903
 42
-0.29327268
  0
VERTEX
  8
0
 10
616.05889694
 20
326.32169055
 42
0.31463565
  0
VERTEX
  8
0
 10
584.62515746
 20
144.65240989
 42
0.10522130
  0
VERTEX
  8
0
 10
591.57432244
 20
135.47315977
 42
0.16333403
  0
VERTEX
  8
0
 10
631.65108931
 20
119.03136150
  0
VERTEX
  8
0
 10
633.03331044
 20
118.95479206
  0
VERTEX
  8
0
 10
634.41680287
 20
118.90634632
  0
SEQEND
  0
POLYLINE
  8
WHITE
 66
   1
 39
0.000000
 70
    1
  0
VERTEX
  8
0
 10
665.45075145
 20
921.25091856
 42
0.07846030
  0
VERTEX
  8
0
 10
638.82334888
 20
919.50241504
 42
0.22068385
  0
VERTEX
  8
0
 10
568.12525401
 20
933.32177127
 42
0.17285613
  0
VERTEX
  8
0
 10
567.15689521
 20
932.68220401
 42
-0.29630702
  0
VERTEX
  8
0
 10
559.84443002
 20
930.01379551
 42
-0.29630702
  0
VERTEX
  8
0
 10
554.43439166
 20
935.61058565
 42
-0.35607503
  0
VERTEX
  8
0
 10
555.46626752
 20
937.53655417
  0
VERTEX
  8
0
 10
563.39047190
 20
940.83830340
 42
-0.12703894
  0
VERTEX
  8
0
 10
564.24619692
 20
940.96069860
  0
VERTEX
  8
0
 10
572.59132838
 20
940.03346177
 42
0.15458923
  0
VERTEX
  8
0
 10
573.61524766
 20
940.23685931
  0
VERTEX
  8
0
 10
582.85730587
 20
945.31998964
 42
-0.20498109
  0
VERTEX
  8
0
 10
584.21086503
 20
945.45372246
  0
VERTEX
  8
0
 10
592.47680372
 20
942.84342749
 42
0.18422584
  0
VERTEX
  8
0
 10
594.19862335
 20
942.94424814
  0
VERTEX
  8
0
 10
602.67919090
 20
946.76050191
 42
-0.22532654
  0
VERTEX
  8
0
 10
604.75452852
 20
946.71816554
  0
VERTEX
  8
0
 10
610.02363798
 20
944.08361153
 42
0.21226314
  0
VERTEX
  8
0
 10
611.98773912
 20
943.99451777
  0
VERTEX
  8
0
 10
621.90949525
 20
947.87694433
 42
-0.21226339
  0
VERTEX
  8
0
 10
623.87360023
 20
947.78785049
  0
VERTEX
  8
0
 10
632.53064055
 20
943.45932759
 42
0.16848404
  0
VERTEX
  8
0
 10
634.10320316
 20
943.25403142
  0
VERTEX
  8
0
 10
648.31777478
 20
946.19497883
  0
VERTEX
  8
0
 10
672.16870360
 20
944.63948234
 42
0.15968053
  0
VERTEX
  8
0
 10
686.05652374
 20
958.65635008
 42
0.34258479
  0
VERTEX
  8
0
 10
685.89136667
 20
959.48808087
 42
0.34258479
  0
VERTEX
  8
0
 10
685.04465808
 20
959.53432397
 42
-0.16329658
  0
VERTEX
  8
0
 10
671.11469105
 20
955.50137822
 42
0.10514212
  0
VERTEX
  8
0
 10
670.12214763
 20
955.33346234
  0
VERTEX
  8
0
 10
662.91376194
 20
952.47852125
 42
-0.14920818
  0
VERTEX
  8
0
 10
661.50549909
 20
952.36438163
  0
VERTEX
  8
0
 10
647.97324626
 20
955.32456011
 42
0.18060219
  0
VERTEX
  8
0
 10
646.29727704
 20
955.08496948
  0
VERTEX
  8
0
 10
637.66691743
 20
950.37750321
 42
-0.22008370
  0
VERTEX
  8
0
 10
635.63936712
 20
950.24331386
  0
VERTEX
  8
0
 10
625.32747363
 20
954.20942323
 42
0.20011605
  0
VERTEX
  8
0
 10
623.46565990
 20
954.15757762
  0
VERTEX
  8
0
 10
615.89478238
 20
950.75068049
 42
-0.20994179
  0
VERTEX
  8
0
 10
613.94841275
 20
950.73320137
  0
VERTEX
  8
0
 10
609.16204686
 20
952.78450054
 42
0.18635094
  0
VERTEX
  8
0
 10
607.41986675
 20
952.84797408
  0
VERTEX
  8
0
 10
595.36146817
 20
948.68990470
 42
-0.16492395
  0
VERTEX
  8
0
 10
593.80729898
 20
948.68189529
  0
VERTEX
  8
0
 10
582.61634046
 20
952.41221344
 42
0.23144280
  0
VERTEX
  8
0
 10
581.11087960
 20
952.21060446
  0
VERTEX
  8
0
 10
576.13811495
 20
948.89542917
  0
VERTEX
  8
0
 10
566.35318871
 20
945.33727639
 42
-0.18474041
  0
VERTEX
  8
0
 10
565.11816786
 20
945.35776946
  0
VERTEX
  8
0
 10
561.43027109
 20
946.83911369
 42
0.24171990
  0
VERTEX
  8
0
 10
559.85794777
 20
946.69343457
  0
VERTEX
  8
0
 10
555.40353203
 20
943.85880971
 42
-0.41421356
  0
VERTEX
  8
0
 10
552.37526240
 20
943.79400413
 42
-0.41421356
  0
VERTEX
  8
0
 10
552.31045731
 20
946.82227332
 42
-0.14161230
  0
VERTEX
  8
0
 10
589.13838109
 20
990.10943533
 42
-0.18192217
  0
VERTEX
  8
0
 10
591.51235707
 20
990.65174791
 42
0.26073411
  0
VERTEX
  8
0
 10
642.19310670
 20
1010.58873193
 42
-0.25791926
  0
VERTEX
  8
0
 10
645.29865877
 20
1011.82936176
 42
0.13713546
  0
VERTEX
  8
0
 10
708.51839189
 20
1021.24183736
 42
-0.38904982
  0
VERTEX
  8
0
 10
717.38445861
 20
1018.28705842
 42
0.22914815
  0
VERTEX
  8
0
 10
744.92510003
 20
998.90541800
 42
-0.32375015
  0
VERTEX
  8
0
 10
750.63565414
 20
993.15450018
 42
-0.10786313
  0
VERTEX
  8
0
 10
748.67364982
 20
960.06315708
 42
-0.33602348
  0
VERTEX
  8
0
 10
748.00803609
 20
959.55889643
  0
VERTEX
  8
0
 10
704.27858765
 20
959.55889643
 42
0.41421353
  0
VERTEX
  8
0
 10
703.58715912
 20
958.86746786
  0
VERTEX
  8
0
 10
703.58715912
 20
954.20032500
 42
0.41421355
  0
VERTEX
  8
0
 10
704.27858765
 20
953.50889643
  0
VERTEX
  8
0
 10
739.82251404
 20
953.50889643
 42
-0.41421353
  0
VERTEX
  8
0
 10
740.51394258
 20
952.81746786
  0
VERTEX
  8
0
 10
740.51394258
 20
942.10703186
 42
-0.13908548
  0
VERTEX
  8
0
 10
739.99903457
 20
940.29179586
 42
-0.15539101
  0
VERTEX
  8
0
 10
704.21533704
 20
909.55432117
 42
-0.23781352
  0
VERTEX
  8
0
 10
701.10943779
 20
909.75831460
 42
0.10265213
  0
VERTEX
  8
0
 10
668.20090607
 20
920.95497700
  0
VERTEX
  8
0
 10
666.82702488
 20
921.11406342
  0
VERTEX
  8
0
 10
665.45075145
 20
921.25091856
  0
SEQEND
  0
POLYLINE
  8
WHITE
 66
   1
 39
0.000000
 70
    1
  0
VERTEX
  8
0
 10
790.17294139
 20
760.58786846
 42
0.16053378
  0
VERTEX
  8
0
 10
773.49528630
 20
755.93911323
 42
-0.12157984
  0
VERTEX
  8
0
 10
741.99907509
 20
744.50556594
  0
VERTEX
  8
0
 10
741.99907583
 20
792.90556186
  0
VERTEX
  8
0
 10
735.94907583
 20
792.90556186
  0
VERTEX
  8
0
 10
735.94907538
 20
744.38714959
 42
-0.12599366
  0
VERTEX
  8
0
 10
703.24286462
 20
755.93911190
 42
0.39320578
  0
VERTEX
  8
0
 10
666.04370418
 20
749.97110110
 42
0.31776691
  0
VERTEX
  8
0
 10
656.54318244
 20
548.38845760
 42
-0.26649507
  0
VERTEX
  8
0
 10
656.70612569
 20
544.95144155
 42
-0.26649507
  0
VERTEX
  8
0
 10
653.82119236
 20
543.07613004
 42
-0.28031351
  0
VERTEX
  8
0
 10
629.08963201
 20
556.30207993
 42
-0.27287554
  0
VERTEX
  8
0
 10
644.64754700
 20
801.24670697
 42
-0.38486927
  0
VERTEX
  8
0
 10
653.65337713
 20
803.44862763
 42
0.33129650
  0
VERTEX
  8
0
 10
704.58754059
 20
810.87784859
 42
0.33129650
  0
VERTEX
  8
0
 10
712.09088033
 20
861.80114606
 42
-0.24991058
  0
VERTEX
  8
0
 10
712.07868237
 20
865.05387469
 42
-0.24991058
  0
VERTEX
  8
0
 10
714.77250100
 20
866.87698534
 42
-0.05263826
  0
VERTEX
  8
0
 10
761.96565103
 20
866.87698878
 42
-0.24991058
  0
VERTEX
  8
0
 10
764.65947235
 20
865.05387631
 42
-0.24991058
  0
VERTEX
  8
0
 10
764.64727134
 20
861.80114606
 42
0.33129650
  0
VERTEX
  8
0
 10
772.15061108
 20
810.87784859
 42
0.33129650
  0
VERTEX
  8
0
 10
823.08477408
 20
803.44862838
 42
-0.38486927
  0
VERTEX
  8
0
 10
832.09060412
 20
801.24670667
 42
-0.27287554
  0
VERTEX
  8
0
 10
847.64851850
 20
556.30208061
 42
-0.28031351
  0
VERTEX
  8
0
 10
822.91695931
 20
543.07613004
 42
-0.26649499
  0
VERTEX
  8
0
 10
820.03202640
 20
544.95144071
 42
-0.26649499
  0
VERTEX
  8
0
 10
820.19496557
 20
548.38845771
 42
0.31776691
  0
VERTEX
  8
0
 10
810.69444560
 20
749.97110259
 42
0.19277771
  0
VERTEX
  8
0
 10
792.92665243
 20
760.32117755
  0
VERTEX
  8
0
 10
792.24088891
 20
760.41367506
  0
VERTEX
  8
0
 10
791.55313370
 20
760.48897690
  0
VERTEX
  8
0
 10
790.86371009
 20
760.54705180
  0
VERTEX
  8
0
 10
790.17294139
 20
760.58786846
  0
SEQEND
  0
POLYLINE
  8
WHITE
 66
   1
 39
0.000000
 70
    1
  0
VERTEX
  8
0
 10
869.77560796
 20
358.91259074
 42
0.03073265
  0
VERTEX
  8
0
 10
857.63606717
 20
376.61885771
 42
0.39320577
  0
VERTEX
  8
0
 10
820.43690862
 20
382.58686702
 42
-0.11876057
  0
VERTEX
  8
0
 10
789.71308813
 20
371.24004140
 42
-0.21420894
  0
VERTEX
  8
0
 10
789.17272746
 20
371.40996836
 42
-0.21420894
  0
VERTEX
  8
0
 10
788.94069740
 20
371.92671440
  0
VERTEX
  8
0
 10
788.94069740
 20
418.86189186
 42
0.41421353
  0
VERTEX
  8
0
 10
788.24926888
 20
419.55332043
  0
VERTEX
  8
0
 10
783.58212598
 20
419.55332043
 42
0.41421355
  0
VERTEX
  8
0
 10
782.89069740
 20
418.86189189
  0
VERTEX
  8
0
 10
782.89069740
 20
371.79482091
 42
-0.21191161
  0
VERTEX
  8
0
 10
782.66319186
 20
371.28213304
 42
-0.21191161
  0
VERTEX
  8
0
 10
782.13039119
 20
371.10683073
 42
-0.12322057
  0
VERTEX
  8
0
 10
750.18448273
 20
382.58686702
 42
0.39320576
  0
VERTEX
  8
0
 10
712.98532378
 20
376.61885812
 42
0.31776691
  0
VERTEX
  8
0
 10
703.48480421
 20
175.03621282
 42
-0.26649508
  0
VERTEX
  8
0
 10
703.64774580
 20
171.59919727
 42
-0.26649508
  0
VERTEX
  8
0
 10
700.76281047
 20
169.72388861
 42
-0.28031351
  0
VERTEX
  8
0
 10
676.03125013
 20
182.94983851
 42
-0.27287554
  0
VERTEX
  8
0
 10
691.58916511
 20
427.89446554
 42
-0.38486931
  0
VERTEX
  8
0
 10
700.59499773
 20
430.09638664
 42
0.33998792
  0
VERTEX
  8
0
 10
751.44044014
 20
437.20238435
 42
0.33998792
  0
VERTEX
  8
0
 10
757.63881928
 20
488.16643358
 42
-0.25446251
  0
VERTEX
  8
0
 10
757.51960827
 20
491.46914243
 42
-0.25446251
  0
VERTEX
  8
0
 10
760.22809172
 20
493.36287111
 42
-0.14599747
  0
VERTEX
  8
0
 10
810.40681464
 20
493.36135246
 42
-0.25419881
  0
VERTEX
  8
0
 10
813.11365427
 20
491.47052275
 42
-0.25419881
  0
VERTEX
  8
0
 10
812.99925527
 20
488.17065448
 42
0.33940168
  0
VERTEX
  8
0
 10
819.23620014
 20
437.25856084
 42
0.33940168
  0
VERTEX
  8
0
 10
870.02639480
 20
430.09638671
 42
-0.38486926
  0
VERTEX
  8
0
 10
879.03222339
 20
427.89446354
 42
-0.27287554
  0
VERTEX
  8
0
 10
894.59014007
 20
182.94983919
 42
-0.28031351
  0
VERTEX
  8
0
 10
869.85858088
 20
169.72388861
 42
-0.26649508
  0
VERTEX
  8
0
 10
866.97364555
 20
171.59919727
 42
-0.26649508
  0
VERTEX
  8
0
 10
867.13658575
 20
175.03621368
 42
0.27987487
  0
VERTEX
  8
0
 10
871.21430955
 20
356.46517487
  0
VERTEX
  8
0
 10
869.77560796
 20
358.91259074
  0
SEQEND
  0
POLYLINE
  8
WHITE
 66
   1
 39
0.000000
 70
    1
  0
VERTEX
  8
0
 10
792.24868844
 20
1014.28861171
 42
0.16390825
  0
VERTEX
  8
0
 10
764.28922685
 20
1015.13445568
 42
-0.40610770
  0
VERTEX
  8
0
 10
760.00616218
 20
1017.34707577
 42
-0.18565800
  0
VERTEX
  8
0
 10
761.53074484
 20
1051.43324407
 42
-0.31889920
  0
VERTEX
  8
0
 10
764.96081694
 20
1053.49658405
 42
-0.01204031
  0
VERTEX
  8
0
 10
801.62620292
 20
1049.82016158
 42
0.22726166
  0
VERTEX
  8
0
 10
815.79572879
 20
1054.56170843
 42
0.22726166
  0
VERTEX
  8
0
 10
820.97555269
 20
1068.57695216
  0
VERTEX
  8
0
 10
819.62727923
 20
1083.04562620
 42
-0.36848137
  0
VERTEX
  8
0
 10
824.79080606
 20
1090.38385294
 42
-0.12643717
  0
VERTEX
  8
0
 10
848.01282777
 20
1090.38385294
 42
-0.36848138
  0
VERTEX
  8
0
 10
853.17635316
 20
1083.04562502
  0
VERTEX
  8
0
 10
851.82808272
 20
1068.57695094
 42
0.22726166
  0
VERTEX
  8
0
 10
857.00790504
 20
1054.56170843
 42
0.22726166
  0
VERTEX
  8
0
 10
871.17742706
 20
1049.82016030
 42
-0.01204030
  0
VERTEX
  8
0
 10
907.84280358
 20
1053.49658304
 42
-0.31889997
  0
VERTEX
  8
0
 10
911.27288843
 20
1051.43324231
 42
-0.18565799
  0
VERTEX
  8
0
 10
912.79746838
 20
1017.34707687
 42
-0.40610770
  0
VERTEX
  8
0
 10
908.51440712
 20
1015.13445602
 42
0.29539600
  0
VERTEX
  8
0
 10
862.75408795
 20
1001.98720935
 42
-0.28966599
  0
VERTEX
  8
0
 10
839.56473634
 20
984.77796420
 42
-0.20861668
  0
VERTEX
  8
0
 10
839.04288859
 20
984.96068347
 42
-0.20861668
  0
VERTEX
  8
0
 10
838.82181692
 20
985.46747516
  0
VERTEX
  8
0
 10
838.82181692
 20
1018.69692389
 42
0.41421356
  0
VERTEX
  8
0
 10
838.13038835
 20
1019.38835246
  0
VERTEX
  8
0
 10
833.46324549
 20
1019.38835246
 42
0.41421335
  0
VERTEX
  8
0
 10
832.77181692
 20
1018.69692433
  0
VERTEX
  8
0
 10
832.77181692
 20
985.58598951
 42
-0.21464906
  0
VERTEX
  8
0
 10
832.53891649
 20
985.06847100
 42
-0.21464906
  0
VERTEX
  8
0
 10
831.99711532
 20
984.89959380
 42
-0.27719027
  0
VERTEX
  8
0
 10
810.04954589
 20
1001.98720935
 42
0.10938096
  0
VERTEX
  8
0
 10
794.81515569
 20
1013.24323206
  0
VERTEX
  8
0
 10
793.54018969
 20
1013.78621939
  0
VERTEX
  8
0
 10
792.24868844
 20
1014.28861171
  0
SEQEND
  0
POLYLINE
  8
WHITE
 66
   1
 39
0.000000
 70
    1
  0
VERTEX
  8
0
 10
987.78362165
 20
836.20597554
 42
0.13936472
  0
VERTEX
  8
0
 10
959.33633414
 20
799.71800684
 42
-0.20185407
  0
VERTEX
  8
0
 10
946.80662623
 20
784.42208071
 42
-0.20185407
  0
VERTEX
  8
0
 10
927.11006360
 20
782.68877335
 42
-0.32590882
  0
VERTEX
  8
0
 10
926.62994392
 20
783.34712147
  0
VERTEX
  8
0
 10
926.62994392
 20
839.24831640
 42
0.41421353
  0
VERTEX
  8
0
 10
925.93851538
 20
839.93974497
  0
VERTEX
  8
0
 10
921.27137249
 20
839.93974497
 42
0.41421355
  0
VERTEX
  8
0
 10
920.57994392
 20
839.24831644
  0
VERTEX
  8
0
 10
920.57994392
 20
782.99242251
 42
-0.34003288
  0
VERTEX
  8
0
 10
920.06608426
 20
782.32418309
 42
-0.40596811
  0
VERTEX
  8
0
 10
889.08355265
 20
799.71800590
 42
0.27658364
  0
VERTEX
  8
0
 10
819.64483837
 20
852.05419183
 42
-0.20703061
  0
VERTEX
  8
0
 10
795.53592540
 20
861.48181719
 42
-0.20703061
  0
VERTEX
  8
0
 10
785.89920354
 20
885.50791575
 42
-0.40637331
  0
VERTEX
  8
0
 10
786.59038649
 20
886.18078691
  0
VERTEX
  8
0
 10
841.06804363
 20
886.18078691
 42
0.41421327
  0
VERTEX
  8
0
 10
841.75947220
 20
886.87221544
  0
VERTEX
  8
0
 10
841.75947220
 20
891.53935834
 42
0.41421355
  0
VERTEX
  8
0
 10
841.06804363
 20
892.23078691
  0
VERTEX
  8
0
 10
786.64587360
 20
892.23078691
 42
-0.39535666
  0
VERTEX
  8
0
 10
785.95589505
 20
892.87743656
 42
-0.21198439
  0
VERTEX
  8
0
 10
795.10063392
 20
917.69996101
 42
-0.21198439
  0
VERTEX
  8
0
 10
819.64483802
 20
927.56738221
 42
0.27658364
  0
VERTEX
  8
0
 10
889.08355049
 20
979.90356829
 42
-0.40596812
  0
VERTEX
  8
0
 10
920.06608404
 20
997.29738992
 42
-0.34003288
  0
VERTEX
  8
0
 10
920.57994392
 20
996.62915131
  0
VERTEX
  8
0
 10
920.57994392
 20
940.37325743
 42
0.41421353
  0
VERTEX
  8
0
 10
921.27137245
 20
939.68182886
  0
VERTEX
  8
0
 10
925.93851535
 20
939.68182886
 42
0.41421322
  0
VERTEX
  8
0
 10
926.62994392
 20
940.37325663
  0
VERTEX
  8
0
 10
926.62994392
 20
996.27445191
 42
-0.32590882
  0
VERTEX
  8
0
 10
927.11006371
 20
996.93279990
 42
-0.20185407
  0
VERTEX
  8
0
 10
946.80662643
 20
995.19949302
 42
-0.20185407
  0
VERTEX
  8
0
 10
959.33633414
 20
979.90356699
 42
0.27658364
  0
VERTEX
  8
0
 10
1028.77504945
 20
927.56737877
 42
-0.21198439
  0
VERTEX
  8
0
 10
1053.31925392
 20
917.69996101
 42
-0.21198439
  0
VERTEX
  8
0
 10
1062.46399126
 20
892.87743684
 42
-0.39535666
  0
VERTEX
  8
0
 10
1061.77401420
 20
892.23078691
  0
VERTEX
  8
0
 10
1007.35184420
 20
892.23078691
 42
0.41421355
  0
VERTEX
  8
0
 10
1006.66041563
 20
891.53935838
  0
VERTEX
  8
0
 10
1006.66041563
 20
886.87221549
 42
0.41421353
  0
VERTEX
  8
0
 10
1007.35184417
 20
886.18078691
  0
VERTEX
  8
0
 10
1061.82950135
 20
886.18078691
 42
-0.40637331
  0
VERTEX
  8
0
 10
1062.52068084
 20
885.50791565
 42
-0.20703061
  0
VERTEX
  8
0
 10
1052.88396183
 20
861.48181659
 42
-0.20703061
  0
VERTEX
  8
0
 10
1028.77504776
 20
852.05419189
 42
0.12380090
  0
VERTEX
  8
0
 10
990.04723964
 20
837.80588220
  0
VERTEX
  8
0
 10
988.90887814
 20
837.01519965
  0
VERTEX
  8
0
 10
987.78362165
 20
836.20597554
  0
SEQEND
  0
POLYLINE
  8
WHITE
 66
   1
 39
0.000000
 70
    1
  0
VERTEX
  8
0
 10
872.37718601
 20
68.69990701
 42
0.07553113
  0
VERTEX
  8
0
 10
862.77751671
 20
70.55408271
 42
-0.26802953
  0
VERTEX
  8
0
 10
861.90065096
 20
71.10845531
 42
-0.31732903
  0
VERTEX
  8
0
 10
864.30984707
 20
89.35411722
 42
0.25554558
  0
VERTEX
  8
0
 10
882.63571230
 20
102.97102121
  0
VERTEX
  8
0
 10
885.01559119
 20
122.44905020
 42
-0.31412626
  0
VERTEX
  8
0
 10
885.80686329
 20
123.33267804
 42
-0.11639891
  0
VERTEX
  8
0
 10
911.18240342
 20
123.33267887
 42
-0.31412537
  0
VERTEX
  8
0
 10
911.97367026
 20
122.44904923
  0
VERTEX
  8
0
 10
914.35355422
 20
102.97102121
 42
0.25554558
  0
VERTEX
  8
0
 10
932.67941751
 20
89.35411558
 42
-0.31732900
  0
VERTEX
  8
0
 10
935.08861562
 20
71.10845283
 42
-0.26802984
  0
VERTEX
  8
0
 10
934.21174645
 20
70.55408013
 42
0.16487631
  0
VERTEX
  8
0
 10
914.70597472
 20
63.05940400
  0
VERTEX
  8
0
 10
901.72057956
 20
60.87857686
 42
-0.22062721
  0
VERTEX
  8
0
 10
901.15946770
 20
61.03260455
 42
-0.22062721
  0
VERTEX
  8
0
 10
900.91463326
 20
61.56045600
  0
VERTEX
  8
0
 10
900.91463326
 20
83.02810660
 42
0.41421353
  0
VERTEX
  8
0
 10
900.22320469
 20
83.71953517
  0
VERTEX
  8
0
 10
895.55606159
 20
83.71953517
 42
0.41421346
  0
VERTEX
  8
0
 10
894.86463326
 20
83.02810660
  0
VERTEX
  8
0
 10
894.86463326
 20
61.76367027
 42
-0.22062724
  0
VERTEX
  8
0
 10
894.61979873
 20
61.23581879
 42
-0.22062724
  0
VERTEX
  8
0
 10
894.05868683
 20
61.08179037
  0
VERTEX
  8
0
 10
882.28329048
 20
63.05940598
 42
0.06658649
  0
VERTEX
  8
0
 10
874.97442009
 20
67.64855041
  0
VERTEX
  8
0
 10
874.33371413
 20
67.93231641
  0
VERTEX
  8
0
 10
873.68712259
 20
68.20219212
  0
VERTEX
  8
0
 10
873.03487129
 20
68.45808613
  0
VERTEX
  8
0
 10
872.37718601
 20
68.69990701
  0
SEQEND
  0
POLYLINE
  8
WHITE
 66
   1
 39
0.000000
 70
    1
  0
VERTEX
  8
0
 10
1095.81871309
 20
495.98157618
 42
0.15115547
  0
VERTEX
  8
0
 10
1134.91773416
 20
505.48985783
 42
0.10522127
  0
VERTEX
  8
0
 10
1143.35528296
 20
513.32294081
 42
0.26803816
  0
VERTEX
  8
0
 10
1157.68451593
 20
673.72649622
 42
-0.41421356
  0
VERTEX
  8
0
 10
1164.61394181
 20
689.92960353
 42
-0.41421356
  0
VERTEX
  8
0
 10
1180.81704725
 20
683.00018524
 42
-0.35142417
  0
VERTEX
  8
0
 10
1123.64319220
 20
457.55889663
 42
-0.32728797
  0
VERTEX
  8
0
 10
1103.20504647
 20
457.27400438
 42
0.30102120
  0
VERTEX
  8
0
 10
1056.13477301
 20
457.77810293
 42
0.30102120
  0
VERTEX
  8
0
 10
1037.28768405
 20
414.64282641
 42
-0.21610860
  0
VERTEX
  8
0
 10
1036.71635696
 20
412.43132974
 42
-0.21610860
  0
VERTEX
  8
0
 10
1034.67645551
 20
411.40374449
 42
-0.06237111
  0
VERTEX
  8
0
 10
990.67712893
 20
419.15821969
 42
-0.21677494
  0
VERTEX
  8
0
 10
989.10915450
 20
420.82792584
 42
-0.21677494
  0
VERTEX
  8
0
 10
989.33759823
 20
423.10702147
 42
0.30243794
  0
VERTEX
  8
0
 10
986.48434036
 20
470.18045654
 42
0.30243794
  0
VERTEX
  8
0
 10
941.95371157
 20
485.70696515
 42
-0.32728802
  0
VERTEX
  8
0
 10
922.84557286
 20
492.96493398
 42
-0.35142417
  0
VERTEX
  8
0
 10
946.22518032
 20
724.36506205
 42
-0.41421356
  0
VERTEX
  8
0
 10
963.82112857
 20
725.33479814
 42
-0.41421356
  0
VERTEX
  8
0
 10
964.79086459
 20
707.73885001
 42
0.26803816
  0
VERTEX
  8
0
 10
923.39468975
 20
552.10792603
 42
0.10522126
  0
VERTEX
  8
0
 10
928.64431928
 20
541.86142277
 42
0.26806938
  0
VERTEX
  8
0
 10
992.28508337
 20
517.62771210
 42
0.12778716
  0
VERTEX
  8
0
 10
1000.24360433
 20
521.12638860
 42
-0.20481879
  0
VERTEX
  8
0
 10
1028.25589047
 20
528.70830213
 42
-0.20344025
  0
VERTEX
  8
0
 10
1028.71899511
 20
528.42999703
 42
-0.20344025
  0
VERTEX
  8
0
 10
1028.84052460
 20
527.90354483
  0
VERTEX
  8
0
 10
1020.67913147
 20
481.61798743
 42
0.41421371
  0
VERTEX
  8
0
 10
1021.23999073
 20
480.81699786
  0
VERTEX
  8
0
 10
1025.83622943
 20
480.00655911
 42
0.41421340
  0
VERTEX
  8
0
 10
1026.63721832
 20
480.56741831
  0
VERTEX
  8
0
 10
1034.80241752
 20
526.87455326
 42
-0.41462244
  0
VERTEX
  8
0
 10
1035.60435719
 20
527.43524361
 42
-0.21353873
  0
VERTEX
  8
0
 10
1060.54461902
 20
510.49369347
 42
0.12778712
  0
VERTEX
  8
0
 10
1066.82656161
 20
504.48404056
 42
0.10208136
  0
VERTEX
  8
0
 10
1093.06096009
 20
496.20769575
  0
VERTEX
  8
0
 10
1094.43868755
 20
496.08062231
  0
VERTEX
  8
0
 10
1095.81871309
 20
495.98157618
  0
SEQEND
  0
POLYLINE
  8
WHITE
 66
   1
 39
0.000000
 70
    1
  0
VERTEX
  8
0
 10
1154.10176852
 20
124.57680608
 42
0.18356948
  0
VERTEX
  8
0
 10
1199.52412050
 20
141.15880551
 42
0.10522127
  0
VERTEX
  8
0
 10
1206.47328196
 20
150.33805156
 42
0.26803816
  0
VERTEX
  8
0
 10
1192.73103540
 20
310.79296208
 42
-0.41421356
  0
VERTEX
  8
0
 10
1196.74154477
 20
327.95319222
 42
-0.41421356
  0
VERTEX
  8
0
 10
1213.90177239
 20
323.94268483
 42
-0.35142417
  0
VERTEX
  8
0
 10
1196.74398784
 20
91.99821804
 42
-0.32728804
  0
VERTEX
  8
0
 10
1176.66581034
 20
88.16860947
 42
0.30102120
  0
VERTEX
  8
0
 10
1130.22310435
 20
80.49138184
 42
0.30102120
  0
VERTEX
  8
0
 10
1119.15270827
 20
34.73866482
 42
-0.21610866
  0
VERTEX
  8
0
 10
1118.97408352
 20
32.46155593
 42
-0.21610866
  0
VERTEX
  8
0
 10
1117.14360988
 20
31.09535677
 42
-0.06237111
  0
VERTEX
  8
0
 10
1072.46618447
 20
31.09162095
 42
-0.21677492
  0
VERTEX
  8
0
 10
1070.63208999
 20
32.46368456
 42
-0.21677492
  0
VERTEX
  8
0
 10
1070.46130278
 20
34.74782397
 42
0.30243794
  0
VERTEX
  8
0
 10
1059.47717626
 20
80.61064472
 42
0.30243794
  0
VERTEX
  8
0
 10
1012.92691786
 20
88.16860823
 42
-0.32728806
  0
VERTEX
  8
0
 10
992.84874073
 20
91.99822096
 42
-0.35142417
  0
VERTEX
  8
0
 10
975.69094920
 20
323.94268719
 42
-0.41421356
  0
VERTEX
  8
0
 10
992.85118255
 20
327.95319516
 42
-0.41421356
  0
VERTEX
  8
0
 10
996.86169009
 20
310.79296208
 42
0.26803816
  0
VERTEX
  8
0
 10
983.11944266
 20
150.33805123
 42
0.10522126
  0
VERTEX
  8
0
 10
990.06860418
 20
141.15880457
 42
0.26806938
  0
VERTEX
  8
0
 10
1056.95066238
 20
128.34435967
 42
0.12778716
  0
VERTEX
  8
0
 10
1064.18073742
 20
133.17186480
 42
-0.21353872
  0
VERTEX
  8
0
 10
1091.68396843
 20
145.52520401
 42
-0.41462270
  0
VERTEX
  8
0
 10
1092.37636275
 20
144.83377611
  0
VERTEX
  8
0
 10
1092.37636275
 20
97.81227726
 42
0.41421355
  0
VERTEX
  8
0
 10
1093.06779128
 20
97.12084869
  0
VERTEX
  8
0
 10
1097.73493418
 20
97.12084869
 42
0.41421353
  0
VERTEX
  8
0
 10
1098.42636275
 20
97.81227722
  0
VERTEX
  8
0
 10
1098.42636275
 20
144.81186474
 42
-0.20344047
  0
VERTEX
  8
0
 10
1098.63746208
 20
145.30921501
 42
-0.20344047
  0
VERTEX
  8
0
 10
1099.14185907
 20
145.50287510
 42
-0.20481880
  0
VERTEX
  8
0
 10
1125.41199138
 20
133.17186470
 42
0.12778713
  0
VERTEX
  8
0
 10
1132.64206486
 20
128.34436026
 42
0.07031002
  0
VERTEX
  8
0
 10
1151.33466256
 20
124.66927284
  0
VERTEX
  8
0
 10
1152.71774539
 20
124.60896994
  0
VERTEX
  8
0
 10
1154.10176852
 20
124.57680608
  0
SEQEND
  0
POLYLINE
  8
WHITE
 66
   1
 39
0.000000
 70
    1
  0
VERTEX
  8
0
 10
1217.79699665
 20
808.56520390
 42
0.07521408
  0
VERTEX
  8
0
 10
1197.77742274
 20
804.83170796
 42
0.12778715
  0
VERTEX
  8
0
 10
1190.54734927
 20
800.00420373
 42
-0.20481881
  0
VERTEX
  8
0
 10
1164.27721572
 20
787.67319408
 42
-0.20344024
  0
VERTEX
  8
0
 10
1163.77281953
 20
787.86685384
 42
-0.20344024
  0
VERTEX
  8
0
 10
1163.56172063
 20
788.36420369
  0
VERTEX
  8
0
 10
1163.56172063
 20
835.36379117
 42
0.41421354
  0
VERTEX
  8
0
 10
1162.87029206
 20
836.05521974
  0
VERTEX
  8
0
 10
1158.20314917
 20
836.05521974
 42
0.41421355
  0
VERTEX
  8
0
 10
1157.51172063
 20
835.36379117
  0
VERTEX
  8
0
 10
1157.51172063
 20
788.34229231
 42
-0.41462272
  0
VERTEX
  8
0
 10
1156.81932659
 20
787.65086863
 42
-0.21353873
  0
VERTEX
  8
0
 10
1129.31609591
 20
800.00420641
 42
0.12778714
  0
VERTEX
  8
0
 10
1122.08602198
 20
804.83171115
 42
0.26806937
  0
VERTEX
  8
0
 10
1055.20396552
 20
792.01726732
 42
0.10522130
  0
VERTEX
  8
0
 10
1048.25480054
 20
782.83801720
 42
0.31463565
  0
VERTEX
  8
0
 10
1079.68854106
 20
601.16873745
 42
-0.29327265
  0
VERTEX
  8
0
 10
1082.02877704
 20
590.21283033
 42
-0.29327265
  0
VERTEX
  8
0
 10
1073.04381416
 20
583.52111489
 42
-0.10235088
  0
VERTEX
  8
0
 10
1062.26410590
 20
584.97862778
 42
-0.12098001
  0
VERTEX
  8
0
 10
1058.12427267
 20
587.68603930
 42
-0.39378722
  0
VERTEX
  8
0
 10
1057.98409735
 20
841.17784862
 42
-0.32728804
  0
VERTEX
  8
0
 10
1078.06227405
 20
845.00746012
 42
0.31007586
  0
VERTEX
  8
0
 10
1123.30079330
 20
852.17909742
 42
0.31007586
  0
VERTEX
  8
0
 10
1132.88820334
 20
896.96790826
 42
-0.25019146
  0
VERTEX
  8
0
 10
1133.21275274
 20
900.20767328
 42
-0.25019146
  0
VERTEX
  8
0
 10
1136.08512404
 20
901.74093449
 42
-0.11561609
  0
VERTEX
  8
0
 10
1183.77831724
 20
901.74093749
 42
-0.25019141
  0
VERTEX
  8
0
 10
1186.65069102
 20
900.20767576
 42
-0.25019141
  0
VERTEX
  8
0
 10
1186.97524024
 20
896.96790872
 42
0.31007586
  0
VERTEX
  8
0
 10
1196.56265142
 20
852.17909742
 42
0.31007586
  0
VERTEX
  8
0
 10
1241.80117068
 20
845.00746012
 42
-0.32728804
  0
VERTEX
  8
0
 10
1261.87934611
 20
841.17784747
 42
-0.39378722
  0
VERTEX
  8
0
 10
1261.73917193
 20
587.68603942
 42
-0.12098004
  0
VERTEX
  8
0
 10
1257.59933744
 20
584.97862896
 42
-0.10235087
  0
VERTEX
  8
0
 10
1246.81963049
 20
583.52111446
 42
-0.29327265
  0
VERTEX
  8
0
 10
1237.83466769
 20
590.21283033
 42
-0.29327265
  0
VERTEX
  8
0
 10
1240.17490291
 20
601.16873819
 42
0.31463565
  0
VERTEX
  8
0
 10
1271.60864330
 20
782.83801686
 42
0.10522130
  0
VERTEX
  8
0
 10
1264.65947882
 20
792.01726711
 42
0.16611435
  0
VERTEX
  8
0
 10
1223.84699634
 20
808.50333193
  0
VERTEX
  8
0
 10
1222.33529254
 20
808.56923416
  0
VERTEX
  8
0
 10
1220.82268423
 20
808.60151744
  0
VERTEX
  8
0
 10
1219.30973206
 20
808.60017596
  0
VERTEX
  8
0
 10
1217.79699665
 20
808.56520390
  0
SEQEND
  0
POLYLINE
  8
WHITE
 66
   1
 39
0.000000
 70
    1
  0
VERTEX
  8
0
 10
1215.59486326
 20
935.28186726
 42
-0.25008219
  0
VERTEX
  8
0
 10
1127.81835982
 20
975.27294245
 42
0.23277943
  0
VERTEX
  8
0
 10
1105.93143485
 20
986.12227158
  0
VERTEX
  8
0
 10
1066.33949736
 20
986.23264732
 42
-0.21382743
  0
VERTEX
  8
0
 10
1065.82406916
 20
986.46536198
 42
-0.21382743
  0
VERTEX
  8
0
 10
1065.65474349
 20
987.00494614
  0
VERTEX
  8
0
 10
1071.50088269
 20
1036.64372340
 42
0.41421357
  0
VERTEX
  8
0
 10
1070.89507372
 20
1037.41127826
  0
VERTEX
  8
0
 10
1066.25996475
 20
1037.95717149
 42
0.41421338
  0
VERTEX
  8
0
 10
1065.49240920
 20
1037.35136273
  0
VERTEX
  8
0
 10
1059.65219353
 20
987.76291466
 42
-0.41579244
  0
VERTEX
  8
0
 10
1058.88093952
 20
987.15754761
 42
-0.25792271
  0
VERTEX
  8
0
 10
1035.56602894
 20
1004.06640266
 42
-0.17707943
  0
VERTEX
  8
0
 10
1047.05982802
 20
1070.47335140
 42
0.19589659
  0
VERTEX
  8
0
 10
1047.76216132
 20
1075.64357264
 42
-0.31374658
  0
VERTEX
  8
0
 10
1059.87000604
 20
1108.18920776
 42
-0.31374658
  0
VERTEX
  8
0
 10
1094.59486318
 20
1108.13901069
  0
VERTEX
  8
0
 10
1133.38791860
 20
1082.27697473
 42
0.14806875
  0
VERTEX
  8
0
 10
1162.15308703
 20
1073.56758211
  0
VERTEX
  8
0
 10
1212.48343464
 20
1073.56758211
 42
-0.41421355
  0
VERTEX
  8
0
 10
1213.17486318
 20
1072.87615354
  0
VERTEX
  8
0
 10
1213.17486318
 20
1039.68758211
 42
0.41421356
  0
VERTEX
  8
0
 10
1213.86629175
 20
1038.99615354
  0
VERTEX
  8
0
 10
1218.53343460
 20
1038.99615354
 42
0.41421356
  0
VERTEX
  8
0
 10
1219.22486318
 20
1039.68758211
  0
VERTEX
  8
0
 10
1219.22486318
 20
1072.87615354
 42
-0.41421355
  0
VERTEX
  8
0
 10
1219.91629175
 20
1073.56758211
  0
VERTEX
  8
0
 10
1269.03663932
 20
1073.56758211
 42
0.14806874
  0
VERTEX
  8
0
 10
1297.80180699
 20
1082.27697423
  0
VERTEX
  8
0
 10
1336.59486217
 20
1108.13900948
 42
-0.31374659
  0
VERTEX
  8
0
 10
1371.31971966
 20
1108.18920821
 42
-0.31374659
  0
VERTEX
  8
0
 10
1383.42756338
 20
1075.64357305
 42
0.19589659
  0
VERTEX
  8
0
 10
1384.12989752
 20
1070.47335096
 42
-0.17707943
  0
VERTEX
  8
0
 10
1395.62369516
 20
1004.06640350
 42
-0.26904869
  0
VERTEX
  8
0
 10
1371.07628733
 20
987.03163132
 42
-0.40364236
  0
VERTEX
  8
0
 10
1370.33365618
 20
987.63991957
  0
VERTEX
  8
0
 10
1364.49562398
 20
1037.20983400
 42
0.41421354
  0
VERTEX
  8
0
 10
1363.72806912
 20
1037.81564297
  0
VERTEX
  8
0
 10
1359.09295930
 20
1037.26975036
 42
0.41421329
  0
VERTEX
  8
0
 10
1358.48715048
 20
1036.50219467
  0
VERTEX
  8
0
 10
1364.31702182
 20
987.00155091
 42
-0.21382719
  0
VERTEX
  8
0
 10
1364.14769568
 20
986.46196739
 42
-0.21382719
  0
VERTEX
  8
0
 10
1363.63226823
 20
986.22925317
  0
VERTEX
  8
0
 10
1325.25829020
 20
986.12227189
 42
0.23277942
  0
VERTEX
  8
0
 10
1303.37136345
 20
975.27294474
 42
-0.24291473
  0
VERTEX
  8
0
 10
1218.36057708
 20
935.14597544
  0
VERTEX
  8
0
 10
1217.66824117
 20
935.18917363
  0
VERTEX
  8
0
 10
1216.97619662
 20
935.24784992
  0
VERTEX
  8
0
 10
1216.28491384
 20
935.28956193
  0
VERTEX
  8
0
 10
1215.93970512
 20
935.29391808
  0
VERTEX
  8
0
 10
1215.59486326
 20
935.28186726
  0
SEQEND
  0
POLYLINE
  8
WHITE
 66
   1
 39
0.000000
 70
    1
  0
VERTEX
  8
0
 10
1264.86801754
 20
388.98276982
 42
0.10344394
  0
VERTEX
  8
0
 10
1237.22890240
 20
385.41525946
 42
0.12778714
  0
VERTEX
  8
0
 10
1229.99882839
 20
380.58775589
 42
-0.21353871
  0
VERTEX
  8
0
 10
1202.49559797
 20
368.23441736
 42
-0.41462272
  0
VERTEX
  8
0
 10
1201.80320366
 20
368.92584526
  0
VERTEX
  8
0
 10
1201.80320366
 20
415.94734066
 42
0.41421354
  0
VERTEX
  8
0
 10
1201.11177509
 20
416.63876923
  0
VERTEX
  8
0
 10
1196.44463223
 20
416.63876923
 42
0.41421356
  0
VERTEX
  8
0
 10
1195.75320366
 20
415.94734066
  0
VERTEX
  8
0
 10
1195.75320366
 20
368.94775663
 42
-0.20344047
  0
VERTEX
  8
0
 10
1195.54210433
 20
368.45040636
 42
-0.20344047
  0
VERTEX
  8
0
 10
1195.03770733
 20
368.25674627
 42
-0.20481880
  0
VERTEX
  8
0
 10
1168.76757488
 20
380.58775657
 42
0.12778711
  0
VERTEX
  8
0
 10
1161.53750267
 20
385.41526024
 42
0.26806938
  0
VERTEX
  8
0
 10
1094.65544510
 20
372.60081680
 42
0.10522126
  0
VERTEX
  8
0
 10
1087.70628357
 20
363.42157014
 42
0.26803816
  0
VERTEX
  8
0
 10
1101.44852850
 20
202.96665774
 42
-0.41421356
  0
VERTEX
  8
0
 10
1097.43802164
 20
185.80642915
 42
-0.41421356
  0
VERTEX
  8
0
 10
1080.27779402
 20
189.81693654
 42
-0.35142417
  0
VERTEX
  8
0
 10
1097.43557856
 20
421.76140333
 42
-0.32728804
  0
VERTEX
  8
0
 10
1117.51375586
 20
425.59101180
 42
0.30102120
  0
VERTEX
  8
0
 10
1163.95646206
 20
433.26823953
 42
0.30102120
  0
VERTEX
  8
0
 10
1175.02685666
 20
479.02095602
 42
-0.21610866
  0
VERTEX
  8
0
 10
1175.20548288
 20
481.29806544
 42
-0.21610866
  0
VERTEX
  8
0
 10
1177.03595653
 20
482.66426461
 42
-0.06237111
  0
VERTEX
  8
0
 10
1221.71338486
 20
482.66799978
 42
-0.21677477
  0
VERTEX
  8
0
 10
1223.54747714
 20
481.29593550
 42
-0.21677477
  0
VERTEX
  8
0
 10
1223.71826345
 20
479.01179744
 42
0.30243794
  0
VERTEX
  8
0
 10
1234.70239014
 20
433.14897665
 42
0.30243794
  0
VERTEX
  8
0
 10
1281.25264888
 20
425.59101242
 42
-0.32728806
  0
VERTEX
  8
0
 10
1301.33082568
 20
421.76140042
 42
-0.35142417
  0
VERTEX
  8
0
 10
1318.48861721
 20
189.81693419
 42
-0.41421356
  0
VERTEX
  8
0
 10
1301.32838386
 20
185.80642622
 42
-0.41421356
  0
VERTEX
  8
0
 10
1297.31787589
 20
202.96665957
 42
0.26803816
  0
VERTEX
  8
0
 10
1311.06012287
 20
363.42156981
 42
0.10522126
  0
VERTEX
  8
0
 10
1304.11096204
 20
372.60081689
 42
0.14974965
  0
VERTEX
  8
0
 10
1267.62884676
 20
388.71087107
  0
VERTEX
  8
0
 10
1266.24981740
 20
388.86088613
  0
VERTEX
  8
0
 10
1264.86801754
 20
388.98276982
  0
SEQEND
  0
POLYLINE
  8
WHITE
 66
   1
 39
0.000000
 70
    1
  0
VERTEX
  8
0
 10
1129.40364968
 20
708.71877358
 42
0.07017468
  0
VERTEX
  8
0
 10
1121.67034866
 20
703.93981057
  0
VERTEX
  8
0
 10
1108.68495683
 20
701.75897995
 42
-0.22062718
  0
VERTEX
  8
0
 10
1108.12384507
 20
701.91300770
 42
-0.22062718
  0
VERTEX
  8
0
 10
1107.87901066
 20
702.44085911
  0
VERTEX
  8
0
 10
1107.87901066
 20
723.90850971
 42
0.41421354
  0
VERTEX
  8
0
 10
1107.18758209
 20
724.59993829
  0
VERTEX
  8
0
 10
1102.52043923
 20
724.59993829
 42
0.41421354
  0
VERTEX
  8
0
 10
1101.82901066
 20
723.90850971
  0
VERTEX
  8
0
 10
1101.82901066
 20
703.05269043
 42
-0.22062743
  0
VERTEX
  8
0
 10
1101.46175836
 20
702.26091271
 42
-0.22062743
  0
VERTEX
  8
0
 10
1100.62008929
 20
702.02987051
  0
VERTEX
  8
0
 10
1089.24766788
 20
703.93980909
 42
0.16487631
  0
VERTEX
  8
0
 10
1069.74189411
 20
711.43448582
 42
-0.26802936
  0
VERTEX
  8
0
 10
1068.86502862
 20
711.98885793
 42
-0.31732903
  0
VERTEX
  8
0
 10
1071.27422436
 20
730.23451925
 42
0.25554560
  0
VERTEX
  8
0
 10
1089.60008970
 20
743.85142432
  0
VERTEX
  8
0
 10
1091.97996891
 20
763.32945596
 42
-0.31412556
  0
VERTEX
  8
0
 10
1092.77124069
 20
764.21308115
 42
-0.11639891
  0
VERTEX
  8
0
 10
1118.14678162
 20
764.21308535
 42
-0.31412478
  0
VERTEX
  8
0
 10
1118.93805112
 20
763.32945580
  0
VERTEX
  8
0
 10
1121.31793162
 20
743.85142432
 42
0.25554558
  0
VERTEX
  8
0
 10
1139.64379491
 20
730.23451870
 42
-0.31732900
  0
VERTEX
  8
0
 10
1142.05299302
 20
711.98885594
 42
-0.26802984
  0
VERTEX
  8
0
 10
1141.17612375
 20
711.43448568
 42
0.07221572
  0
VERTEX
  8
0
 10
1131.98185895
 20
709.72143163
  0
VERTEX
  8
0
 10
1130.68209658
 20
709.24750766
  0
VERTEX
  8
0
 10
1129.40364968
 20
708.71877358
  0
SEQEND
  0
POLYLINE
  8
WHITE
 66
   1
 39
0.000000
 70
    1
  0
VERTEX
  8
0
 10
1257.31383667
 20
1191.06231097
 42
0.10185943
  0
VERTEX
  8
0
 10
1217.19898327
 20
1183.08970633
 42
-0.25513957
  0
VERTEX
  8
0
 10
1200.92293364
 20
1167.93135229
 42
-0.25513957
  0
VERTEX
  8
0
 10
1179.36945290
 20
1173.42070417
 42
-0.07964345
  0
VERTEX
  8
0
 10
1158.12585865
 20
1156.20388770
 42
-0.31302743
  0
VERTEX
  8
0
 10
1141.68576738
 20
1131.07957268
 42
-0.07010367
  0
VERTEX
  8
0
 10
1139.81383962
 20
1130.61222438
 42
-0.22940094
  0
VERTEX
  8
0
 10
1088.70895099
 20
1149.05392351
 42
-0.22940094
  0
VERTEX
  8
0
 10
1071.49041100
 20
1200.58379546
  0
VERTEX
  8
0
 10
1112.28469672
 20
1200.58379546
 42
0.41421335
  0
VERTEX
  8
0
 10
1112.97612529
 20
1201.27522356
  0
VERTEX
  8
0
 10
1112.97612529
 20
1205.94236689
 42
0.41421356
  0
VERTEX
  8
0
 10
1112.28469672
 20
1206.63379546
  0
VERTEX
  8
0
 10
1072.30906935
 20
1206.63379546
 42
-0.35212876
  0
VERTEX
  8
0
 10
1071.63378441
 20
1207.17668542
 42
-0.25991919
  0
VERTEX
  8
0
 10
1091.47459956
 20
1273.16606177
 42
0.24509471
  0
VERTEX
  8
0
 10
1108.66274841
 20
1294.11329082
 42
-0.35952994
  0
VERTEX
  8
0
 10
1157.98526591
 20
1321.79356265
 42
0.19380234
  0
VERTEX
  8
0
 10
1152.00677995
 20
1248.85230847
 42
0.28963852
  0
VERTEX
  8
0
 10
1157.99388128
 20
1242.38444711
 42
-0.20791780
  0
VERTEX
  8
0
 10
1171.43456308
 20
1245.17780338
 42
-0.20791780
  0
VERTEX
  8
0
 10
1182.64652183
 20
1237.25652007
 42
-0.24530176
  0
VERTEX
  8
0
 10
1226.41366247
 20
1235.95281760
 42
0.21234808
  0
VERTEX
  8
0
 10
1279.49471120
 20
1241.03559824
 42
0.20922341
  0
VERTEX
  8
0
 10
1356.45645722
 20
1234.49467749
 42
-0.21038250
  0
VERTEX
  8
0
 10
1372.32439818
 20
1228.31782066
 42
-0.21038250
  0
VERTEX
  8
0
 10
1378.48417566
 20
1212.44324187
 42
0.20429887
  0
VERTEX
  8
0
 10
1513.10725980
 20
1192.55876890
 42
-0.16795392
  0
VERTEX
  8
0
 10
1533.84770002
 20
1207.70440172
 42
-0.22768658
  0
VERTEX
  8
0
 10
1552.25961232
 20
1236.16517093
 42
-0.21212155
  0
VERTEX
  8
0
 10
1556.86259226
 20
1242.94154428
 42
-0.30147343
  0
VERTEX
  8
0
 10
1569.94998515
 20
1272.34206738
 42
0.21942244
  0
VERTEX
  8
0
 10
1572.37793106
 20
1260.18927389
  0
VERTEX
  8
0
 10
1572.37793158
 20
1197.80493711
 42
0.22978939
  0
VERTEX
  8
0
 10
1572.37792911
 20
1173.09426200
 42
-0.33149935
  0
VERTEX
  8
0
 10
1548.93011362
 20
1154.71465271
 42
-0.22955290
  0
VERTEX
  8
0
 10
1520.66658104
 20
1143.20524249
 42
-0.24396700
  0
VERTEX
  8
0
 10
1515.66071185
 20
1131.17420172
 42
-0.24396700
  0
VERTEX
  8
0
 10
1502.94199118
 20
1128.33892165
  0
VERTEX
  8
0
 10
1416.81013646
 20
1150.05395000
 42
0.27281828
  0
VERTEX
  8
0
 10
1374.15129801
 20
1148.44244891
 42
-0.32026933
  0
VERTEX
  8
0
 10
1347.59013744
 20
1167.78045282
 42
-0.30919934
  0
VERTEX
  8
0
 10
1313.78502495
 20
1173.42070338
 42
0.14210874
  0
VERTEX
  8
0
 10
1260.07923991
 20
1191.00570739
  0
VERTEX
  8
0
 10
1258.69673127
 20
1191.04343674
  0
VERTEX
  8
0
 10
1257.31383667
 20
1191.06231097
  0
SEQEND
  0
POLYLINE
  8
WHITE
 66
   1
 39
0.000000
 70
    1
  0
VERTEX
  8
0
 10
1270.99825250
 20
47.98083843
 42
0.07927890
  0
VERTEX
  8
0
 10
1262.17728245
 20
42.74802483
  0
VERTEX
  8
0
 10
1249.19188912
 20
40.56719454
 42
-0.22062724
  0
VERTEX
  8
0
 10
1248.63077719
 20
40.72122299
 42
-0.22062724
  0
VERTEX
  8
0
 10
1248.38594269
 20
41.24907449
  0
VERTEX
  8
0
 10
1248.38594269
 20
62.71672509
 42
0.41421356
  0
VERTEX
  8
0
 10
1247.69451412
 20
63.40815366
  0
VERTEX
  8
0
 10
1243.02737126
 20
63.40815366
 42
0.41421355
  0
VERTEX
  8
0
 10
1242.33594269
 20
62.71672509
  0
VERTEX
  8
0
 10
1242.33594269
 20
41.45228880
 42
-0.22062725
  0
VERTEX
  8
0
 10
1242.09110817
 20
40.92443729
 42
-0.22062725
  0
VERTEX
  8
0
 10
1241.52999626
 20
40.77040886
  0
VERTEX
  8
0
 10
1229.75460123
 20
42.74802249
 42
0.16487633
  0
VERTEX
  8
0
 10
1210.24882614
 20
50.24270119
 42
-0.26802936
  0
VERTEX
  8
0
 10
1209.37195959
 20
50.79707274
 42
-0.31732903
  0
VERTEX
  8
0
 10
1211.78115639
 20
69.04273462
 42
0.25554561
  0
VERTEX
  8
0
 10
1230.10702225
 20
82.65964082
  0
VERTEX
  8
0
 10
1232.48690094
 20
102.13767133
 42
-0.31412556
  0
VERTEX
  8
0
 10
1233.27817272
 20
103.02129652
 42
-0.11639891
  0
VERTEX
  8
0
 10
1258.65371266
 20
103.02129652
 42
-0.31412478
  0
VERTEX
  8
0
 10
1259.44498103
 20
102.13767092
  0
VERTEX
  8
0
 10
1261.82486300
 20
82.65964086
 42
0.25554557
  0
VERTEX
  8
0
 10
1280.15072570
 20
69.04273508
 42
-0.31732903
  0
VERTEX
  8
0
 10
1282.55992128
 20
50.79707330
 42
-0.26802984
  0
VERTEX
  8
0
 10
1281.68305574
 20
50.24270207
 42
0.06298794
  0
VERTEX
  8
0
 10
1273.62754749
 20
48.89444127
  0
VERTEX
  8
0
 10
1272.30312847
 20
48.46576173
  0
VERTEX
  8
0
 10
1270.99825250
 20
47.98083843
  0
SEQEND
  0
POLYLINE
  8
WHITE
 66
   1
 39
0.000000
 70
    1
  0
VERTEX
  8
0
 10
1332.98384128
 20
65.63044908
 42
-0.09875467
  0
VERTEX
  8
0
 10
1322.37492024
 20
73.70073139
 42
0.29483253
  0
VERTEX
  8
0
 10
1304.72941569
 20
85.64057492
 42
-0.23057497
  0
VERTEX
  8
0
 10
1302.03660364
 20
87.02437253
 42
-0.23057497
  0
VERTEX
  8
0
 10
1301.46587352
 20
89.99765129
  0
VERTEX
  8
0
 10
1304.90415213
 20
102.73855675
 42
-0.23753883
  0
VERTEX
  8
0
 10
1309.05132203
 20
107.37254949
  0
VERTEX
  8
0
 10
1325.76517342
 20
113.93897323
 42
0.30836372
  0
VERTEX
  8
0
 10
1333.44062135
 20
125.20100409
  0
VERTEX
  8
0
 10
1333.44062135
 20
138.35470320
 42
-0.33051226
  0
VERTEX
  8
0
 10
1335.89608078
 20
141.66354863
 42
-0.14812868
  0
VERTEX
  8
0
 10
1365.57228201
 20
141.65879658
 42
-0.32879588
  0
VERTEX
  8
0
 10
1368.02662178
 20
138.37057149
  0
VERTEX
  8
0
 10
1368.10459072
 20
125.09367363
 42
0.30675672
  0
VERTEX
  8
0
 10
1375.77983201
 20
113.90270058
  0
VERTEX
  8
0
 10
1392.40134851
 20
107.37254864
 42
-0.23753880
  0
VERTEX
  8
0
 10
1396.54852052
 20
102.73855717
  0
VERTEX
  8
0
 10
1399.98680362
 20
89.99765285
 42
-0.23057497
  0
VERTEX
  8
0
 10
1399.41607315
 20
87.02436839
 42
-0.23057497
  0
VERTEX
  8
0
 10
1396.72325560
 20
85.64057383
 42
0.29483253
  0
VERTEX
  8
0
 10
1379.07774736
 20
73.70073362
 42
-0.21270905
  0
VERTEX
  8
0
 10
1353.84388185
 20
62.18840738
 42
-0.41680745
  0
VERTEX
  8
0
 10
1353.14633563
 20
62.87980889
  0
VERTEX
  8
0
 10
1353.14633563
 20
91.08691749
 42
0.41421355
  0
VERTEX
  8
0
 10
1352.45490706
 20
91.77834606
  0
VERTEX
  8
0
 10
1347.78776416
 20
91.77834606
 42
0.41421354
  0
VERTEX
  8
0
 10
1347.09633563
 20
91.08691749
  0
VERTEX
  8
0
 10
1347.09633218
 20
62.91245814
 42
-0.20478082
  0
VERTEX
  8
0
 10
1346.88266772
 20
62.41264473
 42
-0.20478082
  0
VERTEX
  8
0
 10
1346.37372768
 20
62.22173619
 42
-0.08195606
  0
VERTEX
  8
0
 10
1335.51884495
 20
64.52013492
  0
VERTEX
  8
0
 10
1334.24006571
 20
65.04954422
  0
VERTEX
  8
0
 10
1332.98384128
 20
65.63044908
  0
SEQEND
  0
POLYLINE
  8
WHITE
 66
   1
 39
0.000000
 70
    1
  0
VERTEX
  8
0
 10
1384.96887901
 20
580.16134746
 42
0.28713268
  0
VERTEX
  8
0
 10
1336.76575986
 20
549.29470812
 42
-0.24532039
  0
VERTEX
  8
0
 10
1336.25537787
 20
548.90860861
 42
-0.24532039
  0
VERTEX
  8
0
 10
1335.64682353
 20
549.10666130
 42
-0.21472623
  0
VERTEX
  8
0
 10
1331.81861980
 20
559.52958449
  0
VERTEX
  8
0
 10
1336.19615780
 20
599.75229040
 42
-0.21694583
  0
VERTEX
  8
0
 10
1337.65862214
 20
602.21614191
 42
-0.27617490
  0
VERTEX
  8
0
 10
1414.62691839
 20
607.53020970
 42
0.23920166
  0
VERTEX
  8
0
 10
1426.56353834
 20
611.29144660
 42
0.23920166
  0
VERTEX
  8
0
 10
1430.57615751
 20
623.14592563
  0
VERTEX
  8
0
 10
1426.70544708
 20
649.99177387
 42
-0.21758846
  0
VERTEX
  8
0
 10
1427.35230905
 20
652.19720297
 42
-0.21758846
  0
VERTEX
  8
0
 10
1429.44285452
 20
653.15217289
  0
VERTEX
  8
0
 10
1464.54240660
 20
653.15217289
 42
-0.21758829
  0
VERTEX
  8
0
 10
1466.63294975
 20
652.19720165
 42
-0.21758829
  0
VERTEX
  8
0
 10
1467.27981035
 20
649.99177389
  0
VERTEX
  8
0
 10
1463.40910332
 20
623.14592566
 42
0.23920166
  0
VERTEX
  8
0
 10
1467.42172279
 20
611.29144660
 42
0.23920166
  0
VERTEX
  8
0
 10
1479.35834274
 20
607.53020970
 42
-0.27617490
  0
VERTEX
  8
0
 10
1556.32663843
 20
602.21614115
 42
-0.21694583
  0
VERTEX
  8
0
 10
1557.78910263
 20
599.75229034
  0
VERTEX
  8
0
 10
1562.16664111
 20
559.52958441
 42
-0.21472623
  0
VERTEX
  8
0
 10
1558.33843718
 20
549.10666250
 42
-0.24532050
  0
VERTEX
  8
0
 10
1557.72988354
 20
548.90860857
 42
-0.24532050
  0
VERTEX
  8
0
 10
1557.21950029
 20
549.29470767
 42
0.21742095
  0
VERTEX
  8
0
 10
1522.97363191
 20
578.17481630
 42
0.21742095
  0
VERTEX
  8
0
 10
1478.71815104
 20
571.22552641
 42
0.12008202
  0
VERTEX
  8
0
 10
1474.26523332
 20
566.42493837
 42
-0.28354610
  0
VERTEX
  8
0
 10
1450.07419431
 20
552.91302952
 42
-0.40161526
  0
VERTEX
  8
0
 10
1449.41262883
 20
553.60381346
  0
VERTEX
  8
0
 10
1449.41262883
 20
586.77503003
 42
0.41421317
  0
VERTEX
  8
0
 10
1448.72120073
 20
587.46645860
  0
VERTEX
  8
0
 10
1444.05405740
 20
587.46645860
 42
0.41421355
  0
VERTEX
  8
0
 10
1443.36262883
 20
586.77503003
  0
VERTEX
  8
0
 10
1443.36262883
 20
553.58002140
 42
-0.41535092
  0
VERTEX
  8
0
 10
1442.66851640
 20
552.88859804
 42
-0.27086909
  0
VERTEX
  8
0
 10
1419.72002479
 20
566.42493669
 42
0.12008202
  0
VERTEX
  8
0
 10
1415.26710850
 20
571.22552384
 42
0.13658737
  0
VERTEX
  8
0
 10
1387.73459356
 20
580.11902006
  0
VERTEX
  8
0
 10
1386.35200762
 20
580.15791313
  0
VERTEX
  8
0
 10
1384.96887901
 20
580.16134746
  0
SEQEND
  0
POLYLINE
  8
WHITE
 66
   1
 39
0.000000
 70
    1
  0
VERTEX
  8
0
 10
1446.17028061
 20
845.17710413
 42
0.08679162
  0
VERTEX
  8
0
 10
1424.54449682
 20
825.14527738
 42
0.22068385
  0
VERTEX
  8
0
 10
1361.50370145
 20
790.28766027
 42
0.17285610
  0
VERTEX
  8
0
 10
1361.17300318
 20
789.17527330
 42
-0.29630701
  0
VERTEX
  8
0
 10
1357.28654960
 20
782.43079207
 42
-0.29630701
  0
VERTEX
  8
0
 10
1349.54467492
 20
783.24067941
 42
-0.35607512
  0
VERTEX
  8
0
 10
1349.09715015
 20
785.37933074
  0
VERTEX
  8
0
 10
1353.04511551
 20
793.00219858
 42
-0.12703865
  0
VERTEX
  8
0
 10
1353.62196243
 20
793.64600580
  0
VERTEX
  8
0
 10
1360.61072160
 20
798.29984953
 42
0.15458938
  0
VERTEX
  8
0
 10
1361.26435009
 20
799.11382294
  0
VERTEX
  8
0
 10
1365.07680085
 20
808.94841040
 42
-0.20498146
  0
VERTEX
  8
0
 10
1366.02772598
 20
809.92090683
  0
VERTEX
  8
0
 10
1374.03767021
 20
813.23454697
 42
0.18422607
  0
VERTEX
  8
0
 10
1375.29185550
 20
814.41854615
  0
VERTEX
  8
0
 10
1379.33530391
 20
822.79316877
 42
-0.22532665
  0
VERTEX
  8
0
 10
1380.95231886
 20
824.09473966
  0
VERTEX
  8
0
 10
1386.68215271
 20
825.46347087
 42
0.21226327
  0
VERTEX
  8
0
 10
1388.24401049
 20
826.65772363
  0
VERTEX
  8
0
 10
1393.34893720
 20
836.00941318
 42
-0.21226362
  0
VERTEX
  8
0
 10
1394.91079935
 20
837.20366531
  0
VERTEX
  8
0
 10
1404.32479295
 20
839.45246414
 42
0.16848395
  0
VERTEX
  8
0
 10
1405.66140705
 20
840.30602134
  0
VERTEX
  8
0
 10
1414.66000103
 20
851.69586989
  0
VERTEX
  8
0
 10
1433.93072378
 20
865.83537329
 42
0.15968050
  0
VERTEX
  8
0
 10
1435.55954361
 20
885.49983317
 42
0.34258479
  0
VERTEX
  8
0
 10
1434.89839924
 20
886.03081487
 42
0.34258479
  0
VERTEX
  8
0
 10
1434.22005859
 20
885.52198543
 42
-0.16329656
  0
VERTEX
  8
0
 10
1426.14141333
 20
873.47856174
 42
0.10514218
  0
VERTEX
  8
0
 10
1425.48901248
 20
872.71193527
  0
VERTEX
  8
0
 10
1421.80219003
 20
865.89145955
 42
-0.14920782
  0
VERTEX
  8
0
 10
1420.79676840
 20
864.89881254
  0
VERTEX
  8
0
 10
1408.52769384
 20
858.46807647
 42
0.18060241
  0
VERTEX
  8
0
 10
1407.39782995
 20
857.20724703
  0
VERTEX
  8
0
 10
1403.81249502
 20
848.05362861
 42
-0.22008342
  0
VERTEX
  8
0
 10
1402.34555792
 20
846.64754937
  0
VERTEX
  8
0
 10
1391.89682072
 20
843.05741023
 42
0.20011595
  0
VERTEX
  8
0
 10
1390.50391366
 20
841.82094580
  0
VERTEX
  8
0
 10
1386.89419433
 20
834.34463878
 42
-0.20994153
  0
VERTEX
  8
0
 10
1385.41442895
 20
833.08014780
  0
VERTEX
  8
0
 10
1380.42930846
 20
831.57491817
 42
0.18635102
  0
VERTEX
  8
0
 10
1379.05392106
 20
830.50368858
  0
VERTEX
  8
0
 10
1372.48940950
 20
819.56743474
 42
-0.16492362
  0
VERTEX
  8
0
 10
1371.30399666
 20
818.56229814
  0
VERTEX
  8
0
 10
1360.33341758
 20
814.22647749
 42
0.23144256
  0
VERTEX
  8
0
 10
1359.30975999
 20
813.10434625
  0
VERTEX
  8
0
 10
1357.63135620
 20
807.36834269
  0
VERTEX
  8
0
 10
1352.42280722
 20
798.35301038
 42
-0.18474041
  0
VERTEX
  8
0
 10
1351.46355406
 20
797.57485160
  0
VERTEX
  8
0
 10
1347.68626940
 20
796.33909243
 42
0.24171967
  0
VERTEX
  8
0
 10
1346.57544163
 20
795.21682656
  0
VERTEX
  8
0
 10
1344.98522606
 20
790.18213263
 42
-0.41421356
  0
VERTEX
  8
0
 10
1342.70708903
 20
788.18595178
 42
-0.41421356
  0
VERTEX
  8
0
 10
1340.71090972
 20
790.46408852
 42
-0.14161230
  0
VERTEX
  8
0
 10
1341.09828395
 20
847.29651367
 42
-0.18192207
  0
VERTEX
  8
0
 10
1342.56826295
 20
849.23790933
 42
0.26073411
  0
VERTEX
  8
0
 10
1368.57672361
 20
897.08748253
 42
-0.25791938
  0
VERTEX
  8
0
 10
1370.15825381
 20
900.03407270
 42
0.13713546
  0
VERTEX
  8
0
 10
1412.53715121
 20
947.88131020
 42
-0.38905005
  0
VERTEX
  8
0
 10
1421.22825679
 20
951.31681590
 42
0.22914813
  0
VERTEX
  8
0
 10
1454.78388739
 20
954.17240038
 42
-0.32375006
  0
VERTEX
  8
0
 10
1462.85504111
 20
953.43761130
 42
-0.10786313
  0
VERTEX
  8
0
 10
1482.62276974
 20
926.82702101
 42
-0.33602359
  0
VERTEX
  8
0
 10
1482.43701018
 20
926.01288754
  0
VERTEX
  8
0
 10
1448.93831032
 20
897.90414105
 42
0.41421348
  0
VERTEX
  8
0
 10
1448.85308720
 20
896.93003444
  0
VERTEX
  8
0
 10
1451.85307092
 20
893.35479394
 42
0.41421309
  0
VERTEX
  8
0
 10
1452.82717623
 20
893.26957191
  0
VERTEX
  8
0
 10
1480.05540006
 20
916.11676397
 42
-0.41421319
  0
VERTEX
  8
0
 10
1481.02950706
 20
916.03154223
  0
VERTEX
  8
0
 10
1487.91403988
 20
907.82687045
 42
-0.13908564
  0
VERTEX
  8
0
 10
1488.68641016
 20
906.10534225
 42
-0.15539101
  0
VERTEX
  8
0
 10
1481.03217481
 20
859.55775343
 42
-0.23781323
  0
VERTEX
  8
0
 10
1478.52179517
 20
857.71759148
 42
0.09427284
  0
VERTEX
  8
0
 10
1448.52402917
 20
846.64554690
  0
VERTEX
  8
0
 10
1447.34120208
 20
845.92086720
  0
VERTEX
  8
0
 10
1446.17028061
 20
845.17710413
  0
SEQEND
  0
POLYLINE
  8
WHITE
 66
   1
 39
0.000000
 70
    1
  0
VERTEX
  8
0
 10
1540.90435089
 20
695.67840931
 42
0.08242311
  0
VERTEX
  8
0
 10
1518.93441853
 20
691.90609953
 42
0.12778712
  0
VERTEX
  8
0
 10
1511.70434375
 20
687.07859470
 42
-0.20481880
  0
VERTEX
  8
0
 10
1485.43421387
 20
674.74758210
 42
-0.20344046
  0
VERTEX
  8
0
 10
1484.92981689
 20
674.94124218
 42
-0.20344046
  0
VERTEX
  8
0
 10
1484.71871755
 20
675.43859242
  0
VERTEX
  8
0
 10
1484.71871755
 20
720.01817994
 42
0.41421356
  0
VERTEX
  8
0
 10
1484.02728898
 20
720.70960851
  0
VERTEX
  8
0
 10
1479.36014612
 20
720.70960851
 42
0.41421337
  0
VERTEX
  8
0
 10
1478.66871755
 20
720.01818039
  0
VERTEX
  8
0
 10
1478.66871755
 20
675.41589977
 42
-0.41464658
  0
VERTEX
  8
0
 10
1477.97626693
 20
674.72447196
 42
-0.21345035
  0
VERTEX
  8
0
 10
1450.48234370
 20
687.07073707
 42
0.12778713
  0
VERTEX
  8
0
 10
1443.25103223
 20
691.89638627
 42
0.26806938
  0
VERTEX
  8
0
 10
1376.37226591
 20
679.06477925
 42
0.10522127
  0
VERTEX
  8
0
 10
1369.42545689
 20
669.88374830
 42
0.05646634
  0
VERTEX
  8
0
 10
1357.84233267
 20
635.53643210
 42
-0.24889266
  0
VERTEX
  8
0
 10
1355.75360114
 20
633.05819595
 42
-0.24889266
  0
VERTEX
  8
0
 10
1352.53048352
 20
633.39873705
 42
-0.10146004
  0
VERTEX
  8
0
 10
1343.86142287
 20
642.24237865
 42
-0.23746841
  0
VERTEX
  8
0
 10
1341.20799648
 20
666.96884452
 42
-0.09782802
  0
VERTEX
  8
0
 10
1379.13978325
 20
728.22607316
 42
-0.32728806
  0
VERTEX
  8
0
 10
1399.21697763
 20
732.06083567
 42
0.28426054
  0
VERTEX
  8
0
 10
1446.04434044
 20
739.90814015
 42
0.28426054
  0
VERTEX
  8
0
 10
1459.93683487
 20
785.31057052
 42
-0.21922236
  0
VERTEX
  8
0
 10
1460.43943617
 20
788.15908919
 42
-0.21922236
  0
VERTEX
  8
0
 10
1462.93084597
 20
789.62862786
 42
-0.10187928
  0
VERTEX
  8
0
 10
1499.21515910
 20
789.63474329
 42
-0.21963935
  0
VERTEX
  8
0
 10
1501.71019524
 20
788.16151949
 42
-0.21963935
  0
VERTEX
  8
0
 10
1502.20781133
 20
785.30705424
 42
0.28515872
  0
VERTEX
  8
0
 10
1516.06194010
 20
739.83760405
 42
0.28515872
  0
VERTEX
  8
0
 10
1562.95816459
 20
732.08184687
 42
-0.32728806
  0
VERTEX
  8
0
 10
1583.03633957
 20
728.25223624
 42
-0.09782802
  0
VERTEX
  8
0
 10
1620.98384680
 20
667.00474529
 42
-0.23746841
  0
VERTEX
  8
0
 10
1618.33676852
 20
642.27760092
 42
-0.10146005
  0
VERTEX
  8
0
 10
1609.66997535
 20
633.43173781
 42
-0.24889261
  0
VERTEX
  8
0
 10
1606.44694930
 20
633.09036752
 42
-0.24889261
  0
VERTEX
  8
0
 10
1604.35757933
 20
635.56806208
 42
0.05646635
  0
VERTEX
  8
0
 10
1592.76563676
 20
669.91240564
 42
0.10522129
  0
VERTEX
  8
0
 10
1585.81647347
 20
679.09165326
 42
0.17115779
  0
VERTEX
  8
0
 10
1543.67006479
 20
695.63761906
  0
VERTEX
  8
0
 10
1542.28741504
 20
695.67206327
  0
VERTEX
  8
0
 10
1540.90435089
 20
695.67840931
  0
SEQEND
  0
POLYLINE
  8
WHITE
 66
   1
 39
0.000000
 70
    1
  0
VERTEX
  8
0
 10
1464.12846511
 20
157.17569989
 42
0.18240526
  0
VERTEX
  8
0
 10
1434.50246296
 20
130.94281159
 42
-0.34481253
  0
VERTEX
  8
0
 10
1433.72473736
 20
130.59412018
 42
-0.34481253
  0
VERTEX
  8
0
 10
1433.19941706
 20
131.26529937
  0
VERTEX
  8
0
 10
1433.19941706
 20
163.91458763
 42
0.41421354
  0
VERTEX
  8
0
 10
1432.50798854
 20
164.60601620
  0
VERTEX
  8
0
 10
1427.84084563
 20
164.60601620
 42
0.41421356
  0
VERTEX
  8
0
 10
1427.14941706
 20
163.91458763
  0
VERTEX
  8
0
 10
1427.14941706
 20
131.09538426
 42
-0.34132645
  0
VERTEX
  8
0
 10
1426.63245719
 20
130.42632959
 42
-0.34132645
  0
VERTEX
  8
0
 10
1425.85460732
 20
130.75773814
 42
0.39794980
  0
VERTEX
  8
0
 10
1350.97630534
 20
154.17854791
 42
-0.20938655
  0
VERTEX
  8
0
 10
1348.20479470
 20
154.06340355
 42
-0.20938655
  0
VERTEX
  8
0
 10
1346.24079867
 20
156.02229329
 42
-0.25253650
  0
VERTEX
  8
0
 10
1351.09794035
 20
196.02171635
 42
-0.25195980
  0
VERTEX
  8
0
 10
1354.03132788
 20
197.48084877
 42
-0.05939096
  0
VERTEX
  8
0
 10
1407.58859042
 20
189.34790494
 42
0.24789005
  0
VERTEX
  8
0
 10
1413.89664212
 20
190.73625401
 42
0.24789005
  0
VERTEX
  8
0
 10
1416.30556582
 20
196.72925938
  0
VERTEX
  8
0
 10
1412.87374229
 20
229.67476169
 42
-0.31795148
  0
VERTEX
  8
0
 10
1414.82970067
 20
233.15604916
 42
-0.22530782
  0
VERTEX
  8
0
 10
1446.72913345
 20
233.15604916
 42
-0.31795148
  0
VERTEX
  8
0
 10
1448.68509040
 20
229.67476186
  0
VERTEX
  8
0
 10
1445.25326420
 20
196.72925869
 42
0.24789009
  0
VERTEX
  8
0
 10
1447.66218928
 20
190.73625339
 42
0.24789009
  0
VERTEX
  8
0
 10
1453.97024024
 20
189.34790494
 42
-0.05939096
  0
VERTEX
  8
0
 10
1507.52750267
 20
197.48085222
 42
-0.25195995
  0
VERTEX
  8
0
 10
1510.46089338
 20
196.02171606
 42
-0.25253650
  0
VERTEX
  8
0
 10
1515.31803386
 20
156.02229393
 42
-0.20938655
  0
VERTEX
  8
0
 10
1513.35403943
 20
154.06340355
 42
-0.20938655
  0
VERTEX
  8
0
 10
1510.58252880
 20
154.17854794
 42
0.20446604
  0
VERTEX
  8
0
 10
1466.76461527
 20
158.10506931
  0
VERTEX
  8
0
 10
1465.44074482
 20
157.65682313
  0
VERTEX
  8
0
 10
1464.12846511
 20
157.17569989
  0
SEQEND
  0
POLYLINE
  8
WHITE
 66
   1
 39
0.000000
 70
    1
  0
VERTEX
  8
0
 10
1498.25049156
 20
436.20211608
 42
0.11228929
  0
VERTEX
  8
0
 10
1472.91803083
 20
427.83343651
 42
0.16905649
  0
VERTEX
  8
0
 10
1470.01351989
 20
424.33669140
 42
-0.16334630
  0
VERTEX
  8
0
 10
1452.22284395
 20
402.42759016
 42
-0.27349492
  0
VERTEX
  8
0
 10
1451.51941489
 20
402.40577517
 42
-0.27349492
  0
VERTEX
  8
0
 10
1451.16125169
 20
403.01158674
  0
VERTEX
  8
0
 10
1451.16125169
 20
436.40207260
 42
0.41421355
  0
VERTEX
  8
0
 10
1450.46982315
 20
437.09350117
  0
VERTEX
  8
0
 10
1445.80268026
 20
437.09350117
 42
0.41421355
  0
VERTEX
  8
0
 10
1445.11125169
 20
436.40207260
  0
VERTEX
  8
0
 10
1445.11125169
 20
403.80697160
 42
-0.27795645
  0
VERTEX
  8
0
 10
1444.74299560
 20
403.19571632
 42
-0.27795645
  0
VERTEX
  8
0
 10
1444.03049515
 20
403.23557088
 42
-0.15484375
  0
VERTEX
  8
0
 10
1427.46897933
 20
424.33669112
 42
0.16905649
  0
VERTEX
  8
0
 10
1424.56446979
 20
427.83343776
 42
0.32659442
  0
VERTEX
  8
0
 10
1353.84199696
 20
421.54826086
 42
-0.24893358
  0
VERTEX
  8
0
 10
1352.26466996
 20
421.17555336
 42
-0.24893358
  0
VERTEX
  8
0
 10
1351.07201880
 20
422.27303051
  0
VERTEX
  8
0
 10
1346.40482745
 20
435.50975980
 42
-0.13654047
  0
VERTEX
  8
0
 10
1346.27965395
 20
437.35913090
  0
VERTEX
  8
0
 10
1351.49959809
 20
462.61387738
 42
-0.29090942
  0
VERTEX
  8
0
 10
1354.08158653
 20
465.27655431
 42
-0.09435571
  0
VERTEX
  8
0
 10
1418.92326408
 20
468.28971007
 42
0.23319628
  0
VERTEX
  8
0
 10
1430.54947840
 20
472.09722097
 42
0.23319628
  0
VERTEX
  8
0
 10
1434.60509910
 20
483.63922817
  0
VERTEX
  8
0
 10
1432.02420629
 20
504.98925971
 42
-0.39819103
  0
VERTEX
  8
0
 10
1436.26796793
 20
510.71782618
 42
-0.08788189
  0
VERTEX
  8
0
 10
1461.21453545
 20
510.71782618
 42
-0.39819084
  0
VERTEX
  8
0
 10
1465.45829330
 20
504.98925973
  0
VERTEX
  8
0
 10
1462.87740166
 20
483.63922803
 42
0.23319628
  0
VERTEX
  8
0
 10
1466.93302152
 20
472.09722097
 42
0.23319628
  0
VERTEX
  8
0
 10
1478.55923584
 20
468.28971007
 42
-0.09435571
  0
VERTEX
  8
0
 10
1543.40091383
 20
465.27655620
 42
-0.29090942
  0
VERTEX
  8
0
 10
1545.98290169
 20
462.61387737
  0
VERTEX
  8
0
 10
1551.20284515
 20
437.35913074
 42
-0.13654047
  0
VERTEX
  8
0
 10
1551.07767238
 20
435.50975983
  0
VERTEX
  8
0
 10
1546.41048017
 20
422.27303085
 42
-0.24893358
  0
VERTEX
  8
0
 10
1545.21782996
 20
421.17555336
 42
-0.24893358
  0
VERTEX
  8
0
 10
1543.64050296
 20
421.54826086
 42
0.19473250
  0
VERTEX
  8
0
 10
1501.01620592
 20
436.40262446
  0
VERTEX
  8
0
 10
1499.63219308
 20
436.31831099
  0
VERTEX
  8
0
 10
1498.25049156
 20
436.20211608
  0
SEQEND
  0
POLYLINE
  8
WHITE
 66
   1
 39
0.000000
 70
    1
  0
VERTEX
  8
0
 10
1537.17912938
 20
272.54840212
 42
0.07423110
  0
VERTEX
  8
0
 10
1520.31212068
 20
266.98387926
 42
0.17198860
  0
VERTEX
  8
0
 10
1512.32741289
 20
258.63822500
 42
-0.14684378
  0
VERTEX
  8
0
 10
1495.62445165
 20
239.37208325
 42
-0.27349493
  0
VERTEX
  8
0
 10
1494.92102243
 20
239.35026843
 42
-0.27349493
  0
VERTEX
  8
0
 10
1494.56285923
 20
239.95608000
  0
VERTEX
  8
0
 10
1494.56285923
 20
273.34656240
 42
0.41421355
  0
VERTEX
  8
0
 10
1493.87143066
 20
274.03799097
  0
VERTEX
  8
0
 10
1489.20428776
 20
274.03799097
 42
0.41421354
  0
VERTEX
  8
0
 10
1488.51285923
 20
273.34656240
  0
VERTEX
  8
0
 10
1488.51285923
 20
240.75146486
 42
-0.27795645
  0
VERTEX
  8
0
 10
1488.14460314
 20
240.14020958
 42
-0.27795645
  0
VERTEX
  8
0
 10
1487.43210269
 20
240.18006414
 42
-0.13838246
  0
VERTEX
  8
0
 10
1471.95830276
 20
258.63822359
 42
0.17198860
  0
VERTEX
  8
0
 10
1463.97359778
 20
266.98387926
 42
0.27630779
  0
VERTEX
  8
0
 10
1402.37404613
 20
262.52182101
 42
-0.39631529
  0
VERTEX
  8
0
 10
1397.68598446
 20
263.19767016
 42
-0.33506611
  0
VERTEX
  8
0
 10
1396.68565919
 20
301.15305338
 42
-0.18281112
  0
VERTEX
  8
0
 10
1398.71985894
 20
302.51181939
 42
-0.09250938
  0
VERTEX
  8
0
 10
1462.32487131
 20
305.23420062
 42
0.23319629
  0
VERTEX
  8
0
 10
1473.95108577
 20
309.04171060
 42
0.23319629
  0
VERTEX
  8
0
 10
1478.00670580
 20
320.58371783
  0
VERTEX
  8
0
 10
1475.42581416
 20
341.93374953
 42
-0.39819096
  0
VERTEX
  8
0
 10
1479.66957425
 20
347.66231576
 42
-0.08788189
  0
VERTEX
  8
0
 10
1504.61614109
 20
347.66231783
 42
-0.39819096
  0
VERTEX
  8
0
 10
1508.85990118
 20
341.93374951
  0
VERTEX
  8
0
 10
1506.27900920
 20
320.58371783
 42
0.23319625
  0
VERTEX
  8
0
 10
1510.33463408
 20
309.04171408
 42
0.23319625
  0
VERTEX
  8
0
 10
1521.96084338
 20
305.23420332
 42
-0.09212148
  0
VERTEX
  8
0
 10
1585.30572145
 20
302.57176537
 42
-0.21726457
  0
VERTEX
  8
0
 10
1587.58342713
 20
300.82723610
 42
-0.26534851
  0
VERTEX
  8
0
 10
1586.49312615
 20
263.79717350
 42
-0.20626718
  0
VERTEX
  8
0
 10
1584.25970153
 20
262.21686493
 42
-0.20626718
  0
VERTEX
  8
0
 10
1581.57711044
 20
262.75470021
 42
0.18433648
  0
VERTEX
  8
0
 10
1539.91608653
 20
272.95497131
  0
VERTEX
  8
0
 10
1538.54526971
 20
272.76742762
  0
VERTEX
  8
0
 10
1537.17912938
 20
272.54840212
  0
SEQEND
  0
POLYLINE
  8
WHITE
 66
   1
 39
0.000000
 70
    1
  0
VERTEX
  8
0
 10
1530.38984045
 20
41.67911067
 42
0.09329080
  0
VERTEX
  8
0
 10
1511.47318291
 20
28.35699047
 42
-0.13721302
  0
VERTEX
  8
0
 10
1495.11343293
 20
16.03569591
 42
-0.24784369
  0
VERTEX
  8
0
 10
1494.47176360
 20
16.10858451
 42
-0.24784369
  0
VERTEX
  8
0
 10
1494.17017620
 20
16.67963383
  0
VERTEX
  8
0
 10
1494.17017620
 20
45.77983651
 42
0.41421356
  0
VERTEX
  8
0
 10
1493.47874763
 20
46.47126509
  0
VERTEX
  8
0
 10
1488.81160478
 20
46.47126509
 42
0.41421356
  0
VERTEX
  8
0
 10
1488.12017620
 20
45.77983651
  0
VERTEX
  8
0
 10
1488.12017620
 20
17.17745894
 42
-0.25249979
  0
VERTEX
  8
0
 10
1487.80852042
 20
16.59966478
 42
-0.25249979
  0
VERTEX
  8
0
 10
1487.15450552
 20
16.54274315
 42
-0.12829480
  0
VERTEX
  8
0
 10
1472.02716969
 20
28.35698927
 42
0.25556603
  0
VERTEX
  8
0
 10
1414.67889030
 20
46.04646291
 42
-0.27535802
  0
VERTEX
  8
0
 10
1411.33757730
 20
47.21404758
 42
-0.36596935
  0
VERTEX
  8
0
 10
1411.49105407
 20
81.81671989
 42
-0.25182042
  0
VERTEX
  8
0
 10
1414.54254806
 20
83.00490917
  0
VERTEX
  8
0
 10
1457.19197811
 20
77.77289275
 42
0.22571365
  0
VERTEX
  8
0
 10
1468.46163979
 20
81.53159414
 42
0.22571365
  0
VERTEX
  8
0
 10
1472.65664220
 20
92.64622707
  0
VERTEX
  8
0
 10
1470.70711276
 20
116.05583188
 42
-0.13951866
  0
VERTEX
  8
0
 10
1491.75017635
 20
119.85546092
 42
-0.13951866
  0
VERTEX
  8
0
 10
1512.79324126
 20
116.05583100
  0
VERTEX
  8
0
 10
1510.84371000
 20
92.64622720
 42
0.22571365
  0
VERTEX
  8
0
 10
1515.03871262
 20
81.53159414
 42
0.22571365
  0
VERTEX
  8
0
 10
1526.30837430
 20
77.77289275
  0
VERTEX
  8
0
 10
1568.95780462
 20
83.00490687
 42
-0.25182042
  0
VERTEX
  8
0
 10
1572.00929663
 20
81.81671845
 42
-0.36596935
  0
VERTEX
  8
0
 10
1572.16277776
 20
47.21404537
 42
-0.27535802
  0
VERTEX
  8
0
 10
1568.82146211
 20
46.04646291
 42
0.14717813
  0
VERTEX
  8
0
 10
1532.93215463
 20
42.77024030
  0
VERTEX
  8
0
 10
1531.65496346
 20
42.23873479
  0
VERTEX
  8
0
 10
1530.38984045
 20
41.67911067
  0
SEQEND
  0
POLYLINE
  8
WHITE
 66
   1
 39
0.000000
 70
    1
  0
VERTEX
  8
0
 10
1564.43368843
 20
360.04739397
 42
0.10883767
  0
VERTEX
  8
0
 10
1549.78941335
 20
363.69704459
 42
-0.22573285
  0
VERTEX
  8
0
 10
1547.14321357
 20
365.04604471
 42
-0.22573285
  0
VERTEX
  8
0
 10
1546.52026269
 20
367.95019806
  0
VERTEX
  8
0
 10
1551.06051719
 20
387.10608512
 42
-0.26612006
  0
VERTEX
  8
0
 10
1553.41038758
 20
389.61384724
 42
-0.05697354
  0
VERTEX
  8
0
 10
1576.15590336
 20
393.84412967
 42
0.41887151
  0
VERTEX
  8
0
 10
1585.76305020
 20
405.08029053
  0
VERTEX
  8
0
 10
1584.66565126
 20
417.81888977
 42
-0.34477372
  0
VERTEX
  8
0
 10
1585.82986398
 20
419.60329111
 42
-0.16583846
  0
VERTEX
  8
0
 10
1617.84394752
 20
419.60328867
 42
-0.34477372
  0
VERTEX
  8
0
 10
1619.00815792
 20
417.81888914
  0
VERTEX
  8
0
 10
1617.91076052
 20
405.08028917
 42
0.41887151
  0
VERTEX
  8
0
 10
1627.51790911
 20
393.84413141
 42
-0.05697354
  0
VERTEX
  8
0
 10
1650.26342469
 20
389.61384692
 42
-0.26612006
  0
VERTEX
  8
0
 10
1652.61329432
 20
387.10608489
  0
VERTEX
  8
0
 10
1657.15355050
 20
367.95019790
 42
-0.22573285
  0
VERTEX
  8
0
 10
1656.53059879
 20
365.04604471
 42
-0.22573285
  0
VERTEX
  8
0
 10
1653.88439900
 20
363.69704459
 42
0.26713393
  0
VERTEX
  8
0
 10
1624.04973318
 20
345.42577661
 42
-0.13786105
  0
VERTEX
  8
0
 10
1620.12967867
 20
341.40901471
 42
-0.09284132
  0
VERTEX
  8
0
 10
1606.26390597
 20
336.52857939
 42
-0.21890980
  0
VERTEX
  8
0
 10
1605.70829113
 20
336.68698730
 42
-0.21890980
  0
VERTEX
  8
0
 10
1605.46690618
 20
337.21190083
  0
VERTEX
  8
0
 10
1605.46690618
 20
366.54360763
 42
0.41421355
  0
VERTEX
  8
0
 10
1604.77547760
 20
367.23503620
  0
VERTEX
  8
0
 10
1600.10833470
 20
367.23503620
 42
0.41421354
  0
VERTEX
  8
0
 10
1599.41690618
 20
366.54360763
  0
VERTEX
  8
0
 10
1599.41690618
 20
337.04420520
 42
-0.21483421
  0
VERTEX
  8
0
 10
1599.18363925
 20
336.52636220
 42
-0.21483421
  0
VERTEX
  8
0
 10
1598.64123302
 20
336.35792892
 42
-0.10069876
  0
VERTEX
  8
0
 10
1583.54413221
 20
341.40901214
 42
-0.13786105
  0
VERTEX
  8
0
 10
1579.62407613
 20
345.42577495
 42
0.13278130
  0
VERTEX
  8
0
 10
1566.96859769
 20
358.65497467
  0
VERTEX
  8
0
 10
1565.71549993
 20
359.37732112
  0
VERTEX
  8
0
 10
1564.43368843
 20
360.04739397
  0
SEQEND
  0
POLYLINE
  8
WHITE
 66
   1
 39
0.000000
 70
    1
  0
VERTEX
  8
0
 10
1573.52881675
 20
142.56638574
 42
0.11489371
  0
VERTEX
  8
0
 10
1559.35208702
 20
146.79940418
 42
-0.36326526
  0
VERTEX
  8
0
 10
1562.12393363
 20
167.37512460
 42
0.21213873
  0
VERTEX
  8
0
 10
1580.68242840
 20
179.16649756
 42
0.21213873
  0
VERTEX
  8
0
 10
1584.37245571
 20
200.84224172
 42
-0.14806211
  0
VERTEX
  8
0
 10
1613.08086386
 20
200.84224207
 42
0.21213874
  0
VERTEX
  8
0
 10
1616.77089189
 20
179.16649697
 42
0.21213874
  0
VERTEX
  8
0
 10
1635.32938766
 20
167.37512439
 42
-0.36326529
  0
VERTEX
  8
0
 10
1638.10123258
 20
146.79940583
 42
0.23750893
  0
VERTEX
  8
0
 10
1612.75863793
 20
132.02709572
  0
VERTEX
  8
0
 10
1601.82284252
 20
132.26828220
 42
-0.40776952
  0
VERTEX
  8
0
 10
1601.14665995
 20
132.95954483
  0
VERTEX
  8
0
 10
1601.14665995
 20
156.62525377
 42
0.41421346
  0
VERTEX
  8
0
 10
1600.45523162
 20
157.31668234
  0
VERTEX
  8
0
 10
1595.78808852
 20
157.31668234
 42
0.41421347
  0
VERTEX
  8
0
 10
1595.09665995
 20
156.62525377
  0
VERTEX
  8
0
 10
1595.09665995
 20
132.93285914
 42
-0.40776942
  0
VERTEX
  8
0
 10
1594.42047738
 20
132.24159651
  0
VERTEX
  8
0
 10
1584.69468406
 20
132.02709463
 42
0.09787516
  0
VERTEX
  8
0
 10
1575.87307227
 20
141.09204772
  0
VERTEX
  8
0
 10
1574.71659824
 20
141.85410679
  0
VERTEX
  8
0
 10
1573.52881675
 20
142.56638574
  0
SEQEND
  0
POLYLINE
  8
WHITE
 66
   1
 39
0.000000
 70
    1
  0
VERTEX
  8
0
 10
1623.60788374
 20
474.90658998
 42
-0.12069699
  0
VERTEX
  8
0
 10
1617.23855971
 20
485.32579331
 42
0.26129316
  0
VERTEX
  8
0
 10
1612.29429662
 20
489.94275060
  0
VERTEX
  8
0
 10
1592.86503274
 20
494.69784675
 42
-0.40429777
  0
VERTEX
  8
0
 10
1590.30286120
 20
498.76319089
  0
VERTEX
  8
0
 10
1594.75445077
 20
520.06118228
 42
-0.26119744
  0
VERTEX
  8
0
 10
1596.97646063
 20
522.60988126
  0
VERTEX
  8
0
 10
1607.12741708
 20
526.23255814
 42
-0.10650505
  0
VERTEX
  8
0
 10
1611.45910275
 20
526.80143189
  0
VERTEX
  8
0
 10
1624.58467109
 20
525.72761220
 42
0.23165266
  0
VERTEX
  8
0
 10
1633.07618520
 20
529.05682330
 42
0.23165266
  0
VERTEX
  8
0
 10
1635.65458348
 20
537.80561291
  0
VERTEX
  8
0
 10
1633.34949188
 20
551.34171780
 42
-0.38540513
  0
VERTEX
  8
0
 10
1635.84203014
 20
555.25579453
 42
-0.13481993
  0
VERTEX
  8
0
 10
1664.40843748
 20
555.25579583
 42
-0.38540511
  0
VERTEX
  8
0
 10
1666.90097432
 20
551.34171846
  0
VERTEX
  8
0
 10
1664.59588362
 20
537.80561291
 42
0.23165266
  0
VERTEX
  8
0
 10
1667.17428189
 20
529.05682330
 42
0.23165266
  0
VERTEX
  8
0
 10
1675.66579600
 20
525.72761220
  0
VERTEX
  8
0
 10
1688.79136377
 20
526.80143024
 42
-0.10650506
  0
VERTEX
  8
0
 10
1693.12305026
 20
526.23255903
  0
VERTEX
  8
0
 10
1703.27400672
 20
522.60988199
 42
-0.26119743
  0
VERTEX
  8
0
 10
1705.49601589
 20
520.06118220
  0
VERTEX
  8
0
 10
1709.94760621
 20
498.76319149
 42
-0.40429777
  0
VERTEX
  8
0
 10
1707.38543435
 20
494.69784671
  0
VERTEX
  8
0
 10
1687.95617047
 20
489.94275060
 42
0.26129322
  0
VERTEX
  8
0
 10
1683.01190630
 20
485.32579218
 42
-0.38705108
  0
VERTEX
  8
0
 10
1653.08925645
 20
468.04394891
 42
-0.35260019
  0
VERTEX
  8
0
 10
1652.54523355
 20
468.71948206
  0
VERTEX
  8
0
 10
1652.54523355
 20
495.80585063
 42
0.41421337
  0
VERTEX
  8
0
 10
1651.85380498
 20
496.49727920
  0
VERTEX
  8
0
 10
1647.18666178
 20
496.49727920
 42
0.41421342
  0
VERTEX
  8
0
 10
1646.49523355
 20
495.80585063
  0
VERTEX
  8
0
 10
1646.49523355
 20
468.48657089
 42
-0.36653288
  0
VERTEX
  8
0
 10
1645.91770714
 20
467.80458814
 42
-0.21226215
  0
VERTEX
  8
0
 10
1625.73093649
 20
473.01994379
  0
VERTEX
  8
0
 10
1625.18073564
 20
473.46942469
  0
VERTEX
  8
0
 10
1624.64328976
 20
473.93387351
  0
VERTEX
  8
0
 10
1624.11890406
 20
474.41301902
  0
VERTEX
  8
0
 10
1623.60788374
 20
474.90658998
  0
SEQEND
  0
POLYLINE
  8
WHITE
 66
   1
 39
0.000000
 70
    1
  0
VERTEX
  8
0
 10
1699.89694795
 20
779.04930336
 42
-0.27372048
  0
VERTEX
  8
0
 10
1671.41356232
 20
761.50226113
 42
-0.41943119
  0
VERTEX
  8
0
 10
1670.70983998
 20
762.19358040
  0
VERTEX
  8
0
 10
1670.70983998
 20
787.13388260
 42
0.41421355
  0
VERTEX
  8
0
 10
1670.01841144
 20
787.82531117
  0
VERTEX
  8
0
 10
1665.35126855
 20
787.82531117
 42
0.41421337
  0
VERTEX
  8
0
 10
1664.65983998
 20
787.13388260
  0
VERTEX
  8
0
 10
1664.65983998
 20
762.19483534
 42
-0.40841051
  0
VERTEX
  8
0
 10
1663.98213751
 20
761.50354262
 42
-0.28386046
  0
VERTEX
  8
0
 10
1634.26273226
 20
779.04930286
 42
0.28018049
  0
VERTEX
  8
0
 10
1601.44041523
 20
790.29601090
 42
-0.20273307
  0
VERTEX
  8
0
 10
1598.79294471
 20
790.78819119
 42
-0.20273307
  0
VERTEX
  8
0
 10
1597.30170122
 20
793.03040760
 42
-0.08724201
  0
VERTEX
  8
0
 10
1596.96697279
 20
819.15535492
 42
-0.40146554
  0
VERTEX
  8
0
 10
1600.78459663
 20
822.03366887
  0
VERTEX
  8
0
 10
1639.17175349
 20
817.50188180
 42
0.22974407
  0
VERTEX
  8
0
 10
1649.14971429
 20
820.96579895
 42
0.22974407
  0
VERTEX
  8
0
 10
1652.60580415
 20
830.94647435
  0
VERTEX
  8
0
 10
1649.79412522
 20
854.60376497
 42
-0.19844946
  0
VERTEX
  8
0
 10
1684.36555473
 20
854.60376497
  0
VERTEX
  8
0
 10
1681.55388072
 20
830.94647529
 42
0.22974407
  0
VERTEX
  8
0
 10
1685.00996810
 20
820.96580140
 42
0.22974407
  0
VERTEX
  8
0
 10
1694.98792631
 20
817.50188385
  0
VERTEX
  8
0
 10
1733.37508312
 20
822.03367060
 42
-0.40146554
  0
VERTEX
  8
0
 10
1737.19270581
 20
819.15535468
 42
-0.08724201
  0
VERTEX
  8
0
 10
1736.85797533
 20
793.03040825
 42
-0.20273307
  0
VERTEX
  8
0
 10
1735.36673333
 20
790.78819407
 42
-0.20273307
  0
VERTEX
  8
0
 10
1732.71926481
 20
790.29601139
 42
0.25797203
  0
VERTEX
  8
0
 10
1701.75259578
 20
781.09902715
  0
VERTEX
  8
0
 10
1701.24831095
 20
780.61365537
  0
VERTEX
  8
0
 10
1700.74040630
 20
780.12919131
  0
VERTEX
  8
0
 10
1700.49940985
 20
779.87841820
  0
VERTEX
  8
0
 10
1700.27468443
 20
779.61721423
  0
VERTEX
  8
0
 10
1700.07195535
 20
779.34202682
  0
VERTEX
  8
0
 10
1699.89694795
 20
779.04930336
  0
SEQEND
  0
POLYLINE
  8
WHITE
 66
   1
 39
0.000000
 70
    1
  0
VERTEX
  8
0
 10
1992.03153485
 20
567.62715027
 42
-0.23669808
  0
VERTEX
  8
0
 10
1999.80033753
 20
494.09785461
 42
-0.36099752
  0
VERTEX
  8
0
 10
1999.03306314
 20
493.66022833
  0
VERTEX
  8
0
 10
1940.75160380
 20
503.93682246
 42
0.41421320
  0
VERTEX
  8
0
 10
1939.95061655
 20
503.37596592
  0
VERTEX
  8
0
 10
1939.14017420
 20
498.77972640
 42
0.41421315
  0
VERTEX
  8
0
 10
1939.70103416
 20
497.97873570
  0
VERTEX
  8
0
 10
1997.96340806
 20
487.70550909
 42
-0.22783686
  0
VERTEX
  8
0
 10
1998.45006045
 20
487.35620021
 42
-0.22783686
  0
VERTEX
  8
0
 10
1998.48130543
 20
486.75797917
 42
-0.20108765
  0
VERTEX
  8
0
 10
1940.15630314
 20
429.28116709
 42
-0.31427405
  0
VERTEX
  8
0
 10
1932.45007531
 20
431.06772946
 42
0.27400752
  0
VERTEX
  8
0
 10
1910.38177498
 20
437.94078846
 42
0.27400752
  0
VERTEX
  8
0
 10
1893.75355608
 20
421.88615464
 42
-0.08386474
  0
VERTEX
  8
0
 10
1880.96907230
 20
413.14740143
 42
0.31196994
  0
VERTEX
  8
0
 10
1867.26929041
 20
407.60805397
 42
0.31196994
  0
VERTEX
  8
0
 10
1867.60990865
 20
392.83468670
 42
-0.37998501
  0
VERTEX
  8
0
 10
1850.45009320
 20
362.81311312
 42
0.38005663
  0
VERTEX
  8
0
 10
1838.59815195
 20
356.14509013
 42
0.38005663
  0
VERTEX
  8
0
 10
1843.82439025
 20
343.59051028
 42
-0.38937995
  0
VERTEX
  8
0
 10
1829.40036215
 20
313.78967948
 42
0.28552382
  0
VERTEX
  8
0
 10
1821.62682058
 20
306.52263966
 42
0.28552382
  0
VERTEX
  8
0
 10
1824.70471739
 20
296.33615737
 42
-0.22784148
  0
VERTEX
  8
0
 10
1826.46688116
 20
273.69024223
 42
-0.22784148
  0
VERTEX
  8
0
 10
1809.88398946
 20
258.16766523
 42
0.25699656
  0
VERTEX
  8
0
 10
1803.06121609
 20
248.03849726
 42
0.25699656
  0
VERTEX
  8
0
 10
1807.96781194
 20
236.85477478
 42
-0.35023882
  0
VERTEX
  8
0
 10
1803.24025095
 20
190.71096511
 42
0.20334244
  0
VERTEX
  8
0
 10
1799.80858434
 20
185.27785645
 42
0.20334244
  0
VERTEX
  8
0
 10
1801.33036526
 20
179.03452495
 42
0.20334244
  0
VERTEX
  8
0
 10
1806.87719127
 20
175.78987911
 42
0.20334244
  0
VERTEX
  8
0
 10
1813.06507588
 20
177.52339974
 42
-0.37511989
  0
VERTEX
  8
0
 10
1836.91601432
 20
157.04529759
 42
-0.37522680
  0
VERTEX
  8
0
 10
1859.42935257
 20
125.06309594
  0
VERTEX
  8
0
 10
1855.44143155
 20
73.82744544
 42
-0.21152906
  0
VERTEX
  8
0
 10
1855.17562768
 20
73.33457803
 42
-0.21152906
  0
VERTEX
  8
0
 10
1854.63202143
 20
73.20017546
  0
VERTEX
  8
0
 10
1774.52255746
 20
87.32563249
 42
-0.41421335
  0
VERTEX
  8
0
 10
1773.96169981
 20
88.12662354
  0
VERTEX
  8
0
 10
1780.72072023
 20
126.45894429
 42
0.41421326
  0
VERTEX
  8
0
 10
1780.15986321
 20
127.25993162
  0
VERTEX
  8
0
 10
1775.56362418
 20
128.07037389
 42
0.41421325
  0
VERTEX
  8
0
 10
1774.76263351
 20
127.50951413
  0
VERTEX
  8
0
 10
1768.00361517
 20
89.17719620
 42
-0.41421343
  0
VERTEX
  8
0
 10
1767.20262572
 20
88.61633758
  0
VERTEX
  8
0
 10
1674.37306571
 20
104.98469320
 42
-0.32479457
  0
VERTEX
  8
0
 10
1673.84239975
 20
116.98015409
 42
-0.25467216
  0
VERTEX
  8
0
 10
1670.25738470
 20
129.94638874
 42
-0.25467216
  0
VERTEX
  8
0
 10
1679.20586387
 20
139.99130610
  0
VERTEX
  8
0
 10
1711.65309743
 20
137.25564637
 42
0.41421328
  0
VERTEX
  8
0
 10
1712.40017189
 20
137.88654119
  0
VERTEX
  8
0
 10
1712.79227095
 20
142.53718229
 42
0.41421344
  0
VERTEX
  8
0
 10
1712.16137595
 20
143.28425676
  0
VERTEX
  8
0
 10
1680.88049921
 20
145.92158514
 42
-0.22209401
  0
VERTEX
  8
0
 10
1674.11648735
 20
169.77153175
 42
-0.22209401
  0
VERTEX
  8
0
 10
1688.06999521
 20
190.26229622
  0
VERTEX
  8
0
 10
1720.17284226
 20
184.63858606
 42
0.41421357
  0
VERTEX
  8
0
 10
1720.97320587
 20
185.20033689
  0
VERTEX
  8
0
 10
1721.77852263
 20
189.79747637
 42
0.41421357
  0
VERTEX
  8
0
 10
1721.21677180
 20
190.59783999
  0
VERTEX
  8
0
 10
1690.41985020
 20
195.99278426
 42
-0.25200110
  0
VERTEX
  8
0
 10
1685.42047094
 20
221.00939182
 42
-0.25200110
  0
VERTEX
  8
0
 10
1703.54608015
 20
238.96173657
  0
VERTEX
  8
0
 10
1730.80736632
 20
232.41855094
 42
0.41421353
  0
VERTEX
  8
0
 10
1731.64107251
 20
232.92951378
  0
VERTEX
  8
0
 10
1732.73033289
 20
237.46776340
 42
0.41421348
  0
VERTEX
  8
0
 10
1732.21937360
 20
238.30146957
  0
VERTEX
  8
0
 10
1703.09988062
 20
245.29065749
 42
-0.25784773
  0
VERTEX
  8
0
 10
1699.86135357
 20
267.30748488
 42
-0.25784773
  0
VERTEX
  8
0
 10
1716.77484305
 20
281.76994039
  0
VERTEX
  8
0
 10
1745.63774169
 20
274.87302580
 42
0.41421352
  0
VERTEX
  8
0
 10
1746.47093222
 20
275.38482735
  0
VERTEX
  8
0
 10
1747.55562626
 20
279.92417080
 42
0.41421341
  0
VERTEX
  8
0
 10
1747.04382852
 20
280.75736471
  0
VERTEX
  8
0
 10
1719.70801558
 20
287.28937166
 42
-0.29790645
  0
VERTEX
  8
0
 10
1716.15088424
 20
311.73408710
 42
-0.29790645
  0
VERTEX
  8
0
 10
1737.11711183
 20
324.79603551
  0
VERTEX
  8
0
 10
1760.27400886
 20
318.55538446
 42
0.41421348
  0
VERTEX
  8
0
 10
1761.12153563
 20
319.04307967
  0
VERTEX
  8
0
 10
1762.33597678
 20
323.54944857
 42
0.41421318
  0
VERTEX
  8
0
 10
1761.84828198
 20
324.39697523
  0
VERTEX
  8
0
 10
1740.68259463
 20
330.10100394
 42
-0.27114201
  0
VERTEX
  8
0
 10
1733.45527111
 20
353.78418593
 42
-0.27114201
  0
VERTEX
  8
0
 10
1750.56615273
 20
371.68237079
 42
-0.15853456
  0
VERTEX
  8
0
 10
1750.99358543
 20
371.66692394
  0
VERTEX
  8
0
 10
1779.12570515
 20
361.37960766
 42
0.41421330
  0
VERTEX
  8
0
 10
1780.01253874
 20
361.79151766
  0
VERTEX
  8
0
 10
1781.61540806
 20
366.17478926
 42
0.41421349
  0
VERTEX
  8
0
 10
1781.20349750
 20
367.06162306
  0
VERTEX
  8
0
 10
1754.33061571
 20
376.88846053
 42
-0.18234711
  0
VERTEX
  8
0
 10
1753.96088162
 20
377.20709715
 42
-0.25772269
  0
VERTEX
  8
0
 10
1754.09358070
 20
400.46056757
 42
-0.25772269
  0
VERTEX
  8
0
 10
1773.84287393
 20
412.73683904
  0
VERTEX
  8
0
 10
1797.42737692
 20
402.51203651
 42
0.41421327
  0
VERTEX
  8
0
 10
1798.33677944
 20
402.87138803
  0
VERTEX
  8
0
 10
1800.19321220
 20
407.15343057
 42
0.41421309
  0
VERTEX
  8
0
 10
1799.83386063
 20
408.06283312
  0
VERTEX
  8
0
 10
1776.65862578
 20
418.11019491
 42
-0.39250980
  0
VERTEX
  8
0
 10
1798.89525195
 20
461.44362942
 42
-0.20307306
  0
VERTEX
  8
0
 10
1799.43391992
 20
461.41554869
  0
VERTEX
  8
0
 10
1826.56561509
 20
448.21638814
 42
0.21374203
  0
VERTEX
  8
0
 10
1827.13065521
 20
448.19850951
 42
0.21374203
  0
VERTEX
  8
0
 10
1827.52017203
 20
448.60822395
  0
VERTEX
  8
0
 10
1829.08224223
 20
453.03842137
 42
0.38126405
  0
VERTEX
  8
0
 10
1828.73263493
 20
453.89009932
  0
VERTEX
  8
0
 10
1803.40828853
 20
466.21001537
 42
-0.20286567
  0
VERTEX
  8
0
 10
1800.02852537
 20
487.72595488
 42
-0.20286567
  0
VERTEX
  8
0
 10
1813.11882245
 20
505.13292393
 42
-0.23786895
  0
VERTEX
  8
0
 10
1813.74039902
 20
505.16942127
  0
VERTEX
  8
0
 10
1844.08265026
 20
492.03912063
 42
0.41421328
  0
VERTEX
  8
0
 10
1844.99181235
 20
492.39908201
  0
VERTEX
  8
0
 10
1846.84536375
 20
496.68237117
 42
0.41421357
  0
VERTEX
  8
0
 10
1846.48540176
 20
497.59153352
  0
VERTEX
  8
0
 10
1817.27187304
 20
510.23339074
 42
-0.25562441
  0
VERTEX
  8
0
 10
1816.17025392
 20
531.32517224
 42
-0.25562441
  0
VERTEX
  8
0
 10
1833.33622886
 20
543.62989063
  0
VERTEX
  8
0
 10
1860.95342098
 20
538.86541191
 42
0.41421357
  0
VERTEX
  8
0
 10
1861.75233408
 20
539.42922895
  0
VERTEX
  8
0
 10
1862.54578098
 20
544.02843006
 42
0.41421356
  0
VERTEX
  8
0
 10
1861.98196395
 20
544.82734316
  0
VERTEX
  8
0
 10
1835.44343003
 20
549.40573229
 42
-0.26532092
  0
VERTEX
  8
0
 10
1834.91450387
 20
549.84185430
 42
-0.27740366
  0
VERTEX
  8
0
 10
1842.23458005
 20
590.38593623
 42
-0.24736204
  0
VERTEX
  8
0
 10
1842.83656892
 20
590.61665047
  0
VERTEX
  8
0
 10
1872.74754680
 20
587.04028969
 42
0.41421357
  0
VERTEX
  8
0
 10
1873.51617519
 20
587.64474261
  0
VERTEX
  8
0
 10
1874.07026349
 20
592.27887751
 42
0.41421358
  0
VERTEX
  8
0
 10
1873.46581055
 20
593.04750245
  0
VERTEX
  8
0
 10
1844.42587803
 20
596.51971481
 42
-0.23220480
  0
VERTEX
  8
0
 10
1843.91461862
 20
596.85126992
 42
-0.37759909
  0
VERTEX
  8
0
 10
1849.79205309
 20
628.61867616
 42
-0.15844546
  0
VERTEX
  8
0
 10
1850.19340233
 20
628.76585238
  0
VERTEX
  8
0
 10
1879.57333658
 20
629.85926149
 42
0.41421351
  0
VERTEX
  8
0
 10
1880.23857259
 20
630.57592737
  0
VERTEX
  8
0
 10
1880.06500106
 20
635.23984109
 42
0.41421342
  0
VERTEX
  8
0
 10
1879.34833521
 20
635.90507710
  0
VERTEX
  8
0
 10
1851.65057120
 20
634.87427021
 42
-0.14624066
  0
VERTEX
  8
0
 10
1851.26720836
 20
634.97347639
 42
-0.27910988
  0
VERTEX
  8
0
 10
1840.49933490
 20
655.51681285
 42
-0.27910988
  0
VERTEX
  8
0
 10
1853.70947003
 20
674.58165174
  0
VERTEX
  8
0
 10
1874.17249466
 20
676.64575414
 42
0.41421340
  0
VERTEX
  8
0
 10
1874.79104055
 20
677.40308295
  0
VERTEX
  8
0
 10
1874.32264183
 20
682.04666174
 42
0.41421355
  0
VERTEX
  8
0
 10
1873.56531265
 20
682.66520760
  0
VERTEX
  8
0
 10
1853.10228467
 20
680.60109877
 42
-0.28122844
  0
VERTEX
  8
0
 10
1841.17707700
 20
699.78186026
 42
-0.28122844
  0
VERTEX
  8
0
 10
1852.79590592
 20
719.14974615
  0
VERTEX
  8
0
 10
1868.46524272
 20
724.52655351
 42
0.41421345
  0
VERTEX
  8
0
 10
1868.89482612
 20
725.40496529
  0
VERTEX
  8
0
 10
1867.38003175
 20
729.81944269
 42
0.41421346
  0
VERTEX
  8
0
 10
1866.50161997
 20
730.24902609
  0
VERTEX
  8
0
 10
1847.51759135
 20
723.73481249
 42
-0.31724901
  0
VERTEX
  8
0
 10
1828.21869612
 20
734.60486044
 42
-0.31724901
  0
VERTEX
  8
0
 10
1831.98746606
 20
756.43148780
  0
VERTEX
  8
0
 10
1854.38636032
 20
768.28670826
 42
0.41421356
  0
VERTEX
  8
0
 10
1854.67402376
 20
769.22126710
  0
VERTEX
  8
0
 10
1852.49075703
 20
773.34626103
 42
0.41421335
  0
VERTEX
  8
0
 10
1851.55620165
 20
773.63392447
  0
VERTEX
  8
0
 10
1832.54311806
 20
763.57073573
 42
-0.33697680
  0
VERTEX
  8
0
 10
1809.01943921
 20
772.77030583
 42
-0.33697680
  0
VERTEX
  8
0
 10
1811.59382529
 20
797.89734426
  0
VERTEX
  8
0
 10
1830.58969826
 20
808.95813749
 42
0.41421308
  0
VERTEX
  8
0
 10
1830.83929546
 20
809.90357394
  0
VERTEX
  8
0
 10
1828.49084955
 20
813.93681386
 42
0.41421357
  0
VERTEX
  8
0
 10
1827.54541255
 20
814.18641074
  0
VERTEX
  8
0
 10
1805.86433344
 20
801.56209155
 42
-0.33057936
  0
VERTEX
  8
0
 10
1782.30176009
 20
812.05169472
 42
-0.33057936
  0
VERTEX
  8
0
 10
1785.52050183
 20
837.64205109
  0
VERTEX
  8
0
 10
1800.05805175
 20
846.33293900
 42
0.41421356
  0
VERTEX
  8
0
 10
1800.29673017
 20
847.28118928
  0
VERTEX
  8
0
 10
1797.90191818
 20
851.28707311
 42
0.41421317
  0
VERTEX
  8
0
 10
1796.95366793
 20
851.52575156
  0
VERTEX
  8
0
 10
1779.57061523
 20
841.13375569
 42
-0.28224993
  0
VERTEX
  8
0
 10
1754.52881601
 20
843.81263520
 42
-0.28224993
  0
VERTEX
  8
0
 10
1745.56622426
 20
867.34856560
 42
-0.21373944
  0
VERTEX
  8
0
 10
1745.88890658
 20
867.81274048
  0
VERTEX
  8
0
 10
1768.86182483
 20
881.65136971
 42
0.41421349
  0
VERTEX
  8
0
 10
1769.09731772
 20
882.60041731
  0
VERTEX
  8
0
 10
1766.68907623
 20
886.59824037
 42
0.41421324
  0
VERTEX
  8
0
 10
1765.74002864
 20
886.83373326
  0
VERTEX
  8
0
 10
1742.50412037
 20
872.83668288
 42
-0.32475251
  0
VERTEX
  8
0
 10
1723.83810603
 20
878.63487354
 42
-0.32475251
  0
VERTEX
  8
0
 10
1723.57257489
 20
898.17889052
 42
-0.10259606
  0
VERTEX
  8
0
 10
1723.77767080
 20
898.37067954
  0
VERTEX
  8
0
 10
1744.36341118
 20
910.91872871
 42
0.41421344
  0
VERTEX
  8
0
 10
1744.59392945
 20
911.86899664
  0
VERTEX
  8
0
 10
1742.16477895
 20
915.85414931
 42
0.41421330
  0
VERTEX
  8
0
 10
1741.21451102
 20
916.08466759
  0
VERTEX
  8
0
 10
1724.52967889
 20
905.91442109
 42
-0.27228763
  0
VERTEX
  8
0
 10
1694.16444268
 20
910.67202817
 42
-0.27228763
  0
VERTEX
  8
0
 10
1683.56725282
 20
939.52305998
 42
-0.21385834
  0
VERTEX
  8
0
 10
1683.88710298
 20
939.98953877
  0
VERTEX
  8
0
 10
1705.91361109
 20
953.44509486
 42
0.41421322
  0
VERTEX
  8
0
 10
1706.14321040
 20
954.39558478
  0
VERTEX
  8
0
 10
1703.71019763
 20
958.37838240
 42
0.41421340
  0
VERTEX
  8
0
 10
1702.75970702
 20
958.60797784
  0
VERTEX
  8
0
 10
1682.04952438
 20
945.95653969
 42
-0.15242189
  0
VERTEX
  8
0
 10
1681.64993090
 20
945.85626468
 42
-0.25999618
  0
VERTEX
  8
0
 10
1660.90975006
 20
959.01524227
 42
-0.25999618
  0
VERTEX
  8
0
 10
1661.20548145
 20
983.57590829
 42
-0.14267836
  0
VERTEX
  8
0
 10
1661.48403940
 20
983.84417723
  0
VERTEX
  8
0
 10
1678.35903820
 20
992.69692789
 42
0.41421336
  0
VERTEX
  8
0
 10
1678.65011667
 20
993.63042612
  0
VERTEX
  8
0
 10
1676.48194100
 20
997.76337420
 42
0.41421337
  0
VERTEX
  8
0
 10
1675.54844231
 20
998.05444897
  0
VERTEX
  8
0
 10
1655.64797086
 20
987.61451649
 42
-0.16227953
  0
VERTEX
  8
0
 10
1655.21635207
 20
987.54424684
 42
-0.22162026
  0
VERTEX
  8
0
 10
1637.51490040
 20
999.56526914
 42
-0.22162026
  0
VERTEX
  8
0
 10
1635.33922453
 20
1020.85171671
 42
-0.22983519
  0
VERTEX
  8
0
 10
1635.76647538
 20
1021.27831833
  0
VERTEX
  8
0
 10
1656.39813283
 20
1028.41010554
 42
0.41421356
  0
VERTEX
  8
0
 10
1656.82572727
 20
1029.28948791
  0
VERTEX
  8
0
 10
1655.30095323
 20
1033.70052631
 42
0.41421357
  0
VERTEX
  8
0
 10
1654.42157089
 20
1034.12812422
  0
VERTEX
  8
0
 10
1634.77526619
 20
1027.33694153
 42
-0.20843969
  0
VERTEX
  8
0
 10
1634.22447283
 20
1027.38009081
 42
-0.21307423
  0
VERTEX
  8
0
 10
1622.51382429
 20
1042.41465130
 42
-0.21307423
  0
VERTEX
  8
0
 10
1625.88788439
 20
1061.17079881
 42
-0.24592240
  0
VERTEX
  8
0
 10
1601.87433928
 20
1092.30095031
 42
-0.20640913
  0
VERTEX
  8
0
 10
1615.34937387
 20
1128.72915357
 42
-0.20640913
  0
VERTEX
  8
0
 10
1651.08908813
 20
1143.93650008
 42
-0.22106459
  0
VERTEX
  8
0
 10
1651.61649716
 20
1143.68824766
 42
-0.22106459
  0
VERTEX
  8
0
 10
1651.76668843
 20
1143.12501291
  0
VERTEX
  8
0
 10
1646.00897258
 20
1110.47138249
  0
VERTEX
  8
0
 10
1651.96706098
 20
1109.42081209
  0
VERTEX
  8
0
 10
1657.71909857
 20
1142.04224989
 42
-0.24801837
  0
VERTEX
  8
0
 10
1658.11568183
 20
1142.55243999
 42
-0.24801837
  0
VERTEX
  8
0
 10
1658.76062184
 20
1142.51213353
 42
-0.35521254
  0
VERTEX
  8
0
 10
1681.37698455
 20
1078.48158614
  0
VERTEX
  8
0
 10
1684.94770600
 20
1061.50492617
 42
-0.41071906
  0
VERTEX
  8
0
 10
1691.14277032
 20
1027.45526243
 42
-0.20512850
  0
VERTEX
  8
0
 10
1713.15400786
 20
1016.33817747
 42
-0.20512850
  0
VERTEX
  8
0
 10
1720.29557503
 20
992.73558917
 42
-0.33411151
  0
VERTEX
  8
0
 10
1747.97312445
 20
957.17836234
 42
-0.21996802
  0
VERTEX
  8
0
 10
1769.99017326
 20
949.41426147
 42
-0.21996802
  0
VERTEX
  8
0
 10
1778.33856898
 20
927.61206021
 42
0.34669836
  0
VERTEX
  8
0
 10
1780.75558570
 20
924.07997700
 42
-0.32902640
  0
VERTEX
  8
0
 10
1806.15148122
 20
889.38284029
 42
0.25222228
  0
VERTEX
  8
0
 10
1811.18751368
 20
879.27557656
 42
0.25222228
  0
VERTEX
  8
0
 10
1822.39835052
 20
877.92075254
 42
-0.22626643
  0
VERTEX
  8
0
 10
1835.59889305
 20
871.34481787
 42
-0.22626643
  0
VERTEX
  8
0
 10
1838.79637584
 20
856.94782709
 42
0.30371785
  0
VERTEX
  8
0
 10
1841.43641330
 20
847.35228984
 42
0.30371785
  0
VERTEX
  8
0
 10
1851.31350201
 20
846.13273196
 42
-0.31310316
  0
VERTEX
  8
0
 10
1867.46423672
 20
813.44792026
 42
0.27420202
  0
VERTEX
  8
0
 10
1871.76426661
 20
805.75527275
 42
0.27420202
  0
VERTEX
  8
0
 10
1880.57676932
 20
805.83821203
 42
-0.20462749
  0
VERTEX
  8
0
 10
1900.01659030
 20
792.08771791
 42
-0.20462749
  0
VERTEX
  8
0
 10
1903.52309581
 20
768.53591584
 42
0.36534615
  0
VERTEX
  8
0
 10
1898.40348632
 20
759.75192671
 42
0.36534615
  0
VERTEX
  8
0
 10
1906.19682567
 20
753.22255244
 42
-0.30323601
  0
VERTEX
  8
0
 10
1921.75633851
 20
745.74976553
 42
-0.30323601
  0
VERTEX
  8
0
 10
1920.81373360
 20
728.51455377
 42
0.31324356
  0
VERTEX
  8
0
 10
1919.90532911
 20
714.69834117
 42
0.31324356
  0
VERTEX
  8
0
 10
1932.53553336
 20
709.02463893
 42
-0.20891630
  0
VERTEX
  8
0
 10
1945.13670569
 20
692.02825291
 42
-0.20891630
  0
VERTEX
  8
0
 10
1941.22727495
 20
671.23443091
 42
0.26457967
  0
VERTEX
  8
0
 10
1936.31377980
 20
663.39646942
 42
0.26457967
  0
VERTEX
  8
0
 10
1940.54168593
 20
655.16841454
 42
-0.25873717
  0
VERTEX
  8
0
 10
1954.38823289
 20
638.12858506
 42
-0.25873717
  0
VERTEX
  8
0
 10
1947.26587695
 20
617.35950390
 42
0.39843947
  0
VERTEX
  8
0
 10
1940.35241685
 20
608.76321680
 42
0.39843947
  0
VERTEX
  8
0
 10
1948.56188724
 20
601.39458632
 42
-0.16316415
  0
VERTEX
  8
0
 10
1990.49939351
 20
569.93095265
  0
VERTEX
  8
0
 10
1991.27512617
 20
568.78547715
  0
VERTEX
  8
0
 10
1992.03153485
 20
567.62715027
  0
SEQEND
  0
POLYLINE
  8
WHITE
 66
   1
 39
0.000000
 70
    1
  0
VERTEX
  8
0
 10
1670.47768988
 20
606.17153575
 42
-0.07711579
  0
VERTEX
  8
0
 10
1657.52435346
 20
616.80252656
 42
0.28458813
  0
VERTEX
  8
0
 10
1632.02300748
 20
624.23740397
 42
-0.20428915
  0
VERTEX
  8
0
 10
1629.87245508
 20
624.52337892
 42
-0.20428915
  0
VERTEX
  8
0
 10
1628.58988576
 20
626.27314275
 42
-0.18854597
  0
VERTEX
  8
0
 10
1632.85398608
 20
655.84248280
 42
-0.30678258
  0
VERTEX
  8
0
 10
1635.63414909
 20
657.21827071
  0
VERTEX
  8
0
 10
1661.96279838
 20
653.62041523
 42
0.24131538
  0
VERTEX
  8
0
 10
1673.86374668
 20
657.80033471
 42
0.24131538
  0
VERTEX
  8
0
 10
1677.42078000
 20
669.90206114
  0
VERTEX
  8
0
 10
1674.36732390
 20
685.97831548
 42
-0.32337015
  0
VERTEX
  8
0
 10
1708.93875283
 20
685.97831474
  0
VERTEX
  8
0
 10
1705.88529709
 20
669.90206114
 42
0.24131538
  0
VERTEX
  8
0
 10
1709.44233042
 20
657.80033471
 42
0.24131538
  0
VERTEX
  8
0
 10
1721.34327872
 20
653.62041523
  0
VERTEX
  8
0
 10
1747.67192819
 20
657.21826947
 42
-0.30678241
  0
VERTEX
  8
0
 10
1750.45208967
 20
655.84248398
 42
-0.18854597
  0
VERTEX
  8
0
 10
1754.71618435
 20
626.27314357
 42
-0.20428912
  0
VERTEX
  8
0
 10
1753.43361816
 20
624.52338467
 42
-0.20428912
  0
VERTEX
  8
0
 10
1751.28307051
 20
624.23740714
 42
0.28458813
  0
VERTEX
  8
0
 10
1725.78172363
 20
616.80252656
 42
-0.16652939
  0
VERTEX
  8
0
 10
1694.88900911
 20
599.47609293
 42
-0.22255752
  0
VERTEX
  8
0
 10
1694.32176994
 20
599.62508862
 42
-0.22255752
  0
VERTEX
  8
0
 10
1694.07303855
 20
600.15621260
  0
VERTEX
  8
0
 10
1694.07303855
 20
626.14792874
 42
0.41421355
  0
VERTEX
  8
0
 10
1693.38160998
 20
626.83935731
  0
VERTEX
  8
0
 10
1688.71446707
 20
626.83935731
 42
0.41421354
  0
VERTEX
  8
0
 10
1688.02303855
 20
626.14792874
  0
VERTEX
  8
0
 10
1688.02303855
 20
600.39210383
 42
-0.22555687
  0
VERTEX
  8
0
 10
1687.76821089
 20
599.85595729
 42
-0.22555687
  0
VERTEX
  8
0
 10
1687.19156232
 20
599.71500557
 42
-0.06978888
  0
VERTEX
  8
0
 10
1672.89607135
 20
604.82516664
  0
VERTEX
  8
0
 10
1671.67835514
 20
605.48303751
  0
VERTEX
  8
0
 10
1670.47768988
 20
606.17153575
  0
SEQEND
  0
POLYLINE
  8
WHITE
 66
   1
 39
0.000000
 70
    1
  0
VERTEX
  8
0
 10
1879.72888520
 20
931.71425464
 42
0.11548573
  0
VERTEX
  8
0
 10
1821.22334943
 20
974.21798779
 42
-0.28550927
  0
VERTEX
  8
0
 10
1808.18831439
 20
985.44771459
 42
-0.20899015
  0
VERTEX
  8
0
 10
1788.56955480
 20
999.24062179
 42
-0.20899015
  0
VERTEX
  8
0
 10
1785.36724224
 20
1023.00793798
 42
-0.22758605
  0
VERTEX
  8
0
 10
1772.84175499
 20
1037.55657797
 42
-0.22758605
  0
VERTEX
  8
0
 10
1776.35965838
 20
1056.42918013
 42
0.22498089
  0
VERTEX
  8
0
 10
1751.04101111
 20
1158.95193028
 42
-0.23100230
  0
VERTEX
  8
0
 10
1750.90234864
 20
1159.54238825
 42
-0.23100230
  0
VERTEX
  8
0
 10
1751.28250747
 20
1160.01498445
  0
VERTEX
  8
0
 10
1759.71354378
 20
1163.97726789
 42
0.30722233
  0
VERTEX
  8
0
 10
1760.43245916
 20
1165.42167657
 42
0.30722233
  0
VERTEX
  8
0
 10
1759.35596738
 20
1166.62347488
  0
VERTEX
  8
0
 10
1752.46615741
 20
1166.58204393
 42
-0.22830188
  0
VERTEX
  8
0
 10
1751.92392480
 20
1166.83923816
 42
-0.22830188
  0
VERTEX
  8
0
 10
1751.78706048
 20
1167.42356109
 42
0.27027334
  0
VERTEX
  8
0
 10
1744.33666442
 20
1190.75421935
 42
0.27027334
  0
VERTEX
  8
0
 10
1720.36223245
 20
1195.75967734
 42
-0.21129722
  0
VERTEX
  8
0
 10
1719.80530916
 20
1195.81238573
 42
-0.21129722
  0
VERTEX
  8
0
 10
1719.46966334
 20
1196.25991631
 42
0.39626577
  0
VERTEX
  8
0
 10
1698.69356664
 20
1210.14658789
 42
-0.37650787
  0
VERTEX
  8
0
 10
1697.91834595
 20
1210.62703054
  0
VERTEX
  8
0
 10
1695.82700960
 20
1217.48976680
 42
0.27509845
  0
VERTEX
  8
0
 10
1695.30376667
 20
1217.96569707
 42
0.27509845
  0
VERTEX
  8
0
 10
1694.63594541
 20
1217.73265441
  0
VERTEX
  8
0
 10
1689.94670346
 20
1212.14423226
 42
-0.23250562
  0
VERTEX
  8
0
 10
1687.15624977
 20
1210.91221861
  0
VERTEX
  8
0
 10
1666.63596358
 20
1211.75657246
 42
-0.28590439
  0
VERTEX
  8
0
 10
1663.61548363
 20
1213.81447284
 42
-0.28590439
  0
VERTEX
  8
0
 10
1664.12977163
 20
1217.43300216
  0
VERTEX
  8
0
 10
1675.46570349
 20
1230.94263669
 42
-0.11632483
  0
VERTEX
  8
0
 10
1676.73773159
 20
1231.89180588
  0
VERTEX
  8
0
 10
1686.13008689
 20
1235.96784966
  0
VERTEX
  8
0
 10
1690.41440995
 20
1248.75781240
  0
VERTEX
  8
0
 10
1749.57323558
 20
1319.26055743
 42
-0.29173357
  0
VERTEX
  8
0
 10
1757.01273777
 20
1314.29029613
 42
-0.29173357
  0
VERTEX
  8
0
 10
1755.64373909
 20
1305.44860300
 42
-0.21146783
  0
VERTEX
  8
0
 10
1749.16350697
 20
1276.44928267
 42
0.30159353
  0
VERTEX
  8
0
 10
1752.82945772
 20
1245.32619620
 42
-0.21870845
  0
VERTEX
  8
0
 10
1753.60615175
 20
1242.54629814
  0
VERTEX
  8
0
 10
1752.63861155
 20
1236.48097609
  0
VERTEX
  8
0
 10
1756.08571832
 20
1238.14702854
 42
-0.41299985
  0
VERTEX
  8
0
 10
1760.69650947
 20
1236.55166857
 42
0.13141332
  0
VERTEX
  8
0
 10
1800.25617529
 20
1191.05301591
 42
-0.36397246
  0
VERTEX
  8
0
 10
1813.58927803
 20
1184.79646122
 42
-0.36397246
  0
VERTEX
  8
0
 10
1809.74293167
 20
1170.57950920
 42
-0.22864271
  0
VERTEX
  8
0
 10
1816.76494191
 20
1163.67284943
 42
-0.22864271
  0
VERTEX
  8
0
 10
1815.72837874
 20
1153.87815446
 42
0.19628165
  0
VERTEX
  8
0
 10
1835.26902307
 20
1049.05515422
 42
-0.22868367
  0
VERTEX
  8
0
 10
1834.38900996
 20
1038.36583396
 42
0.17638365
  0
VERTEX
  8
0
 10
1886.41936428
 20
997.79280764
 42
-0.39237625
  0
VERTEX
  8
0
 10
1943.69216974
 20
985.60632443
 42
-0.26477000
  0
VERTEX
  8
0
 10
1979.55980369
 20
960.92023840
 42
-0.26477000
  0
VERTEX
  8
0
 10
1976.63048123
 20
917.47706713
 42
-0.21365731
  0
VERTEX
  8
0
 10
1976.15313565
 20
917.17457867
 42
-0.21365731
  0
VERTEX
  8
0
 10
1975.60958278
 20
917.32920192
  0
VERTEX
  8
0
 10
1934.15944429
 20
952.10999814
 42
0.41421356
  0
VERTEX
  8
0
 10
1933.18533590
 20
952.02477791
  0
VERTEX
  8
0
 10
1930.18535486
 20
948.44953726
 42
0.41421315
  0
VERTEX
  8
0
 10
1930.27057823
 20
947.47543259
  0
VERTEX
  8
0
 10
1971.75187986
 20
912.66848551
 42
-0.39715412
  0
VERTEX
  8
0
 10
1971.86222178
 20
911.72615932
 42
0.32689396
  0
VERTEX
  8
0
 10
1971.49590756
 20
863.84252965
 42
-0.26163736
  0
VERTEX
  8
0
 10
1986.65765298
 20
792.40143457
 42
-0.22026597
  0
VERTEX
  8
0
 10
1944.91630560
 20
780.16505357
 42
0.06887113
  0
VERTEX
  8
0
 10
1918.03006732
 20
797.89001286
 42
-0.33494029
  0
VERTEX
  8
0
 10
1916.11038985
 20
801.58572498
 42
0.21901473
  0
VERTEX
  8
0
 10
1881.51879402
 20
929.60569084
  0
VERTEX
  8
0
 10
1879.72888520
 20
931.71425464
  0
SEQEND
  0
POLYLINE
  8
WHITE
 66
   1
 39
0.000000
 70
    1
  0
VERTEX
  8
0
 10
2004.88646293
 20
304.97798972
 42
0.07254828
  0
VERTEX
  8
0
 10
2056.59558829
 20
273.33157098
 42
-0.41036097
  0
VERTEX
  8
0
 10
2065.77476046
 20
250.84905314
  0
VERTEX
  8
0
 10
2035.16353393
 20
176.63002650
 42
-0.35081915
  0
VERTEX
  8
0
 10
2009.47860946
 20
185.88405889
 42
-0.27508289
  0
VERTEX
  8
0
 10
2009.46921163
 20
186.59127369
  0
VERTEX
  8
0
 10
2029.28119158
 20
220.90663514
 42
0.41421335
  0
VERTEX
  8
0
 10
2029.02811143
 20
221.85114386
  0
VERTEX
  8
0
 10
2024.98624818
 20
224.18471529
 42
0.41421323
  0
VERTEX
  8
0
 10
2024.04173946
 20
223.93163514
  0
VERTEX
  8
0
 10
2004.27091694
 20
189.68756665
 42
-0.31717325
  0
VERTEX
  8
0
 10
2003.54741780
 20
189.35319167
 42
0.23786922
  0
VERTEX
  8
0
 10
1941.19363630
 20
171.03704132
 42
-0.32849355
  0
VERTEX
  8
0
 10
1899.65937155
 20
181.90862327
 42
-0.38325321
  0
VERTEX
  8
0
 10
1899.70737012
 20
182.83159280
  0
VERTEX
  8
0
 10
1929.21617943
 20
212.42697589
 42
0.41421357
  0
VERTEX
  8
0
 10
1929.21474818
 20
213.40480109
  0
VERTEX
  8
0
 10
1925.90974726
 20
216.70013237
 42
0.41421335
  0
VERTEX
  8
0
 10
1924.93192085
 20
216.69870132
  0
VERTEX
  8
0
 10
1895.61503034
 20
187.29579772
 42
-0.32556533
  0
VERTEX
  8
0
 10
1894.81096306
 20
187.16820434
 42
-0.35658783
  0
VERTEX
  8
0
 10
1868.44395709
 20
247.23710289
  0
VERTEX
  8
0
 10
1900.98788550
 20
303.60484627
 42
-0.41421329
  0
VERTEX
  8
0
 10
1901.93239418
 20
303.85792586
  0
VERTEX
  8
0
 10
1957.06715440
 20
272.02585721
 42
0.41421305
  0
VERTEX
  8
0
 10
1958.01166259
 20
272.27893735
  0
VERTEX
  8
0
 10
1960.34523406
 20
276.32080117
 42
0.41421335
  0
VERTEX
  8
0
 10
1960.09215392
 20
277.26530989
  0
VERTEX
  8
0
 10
1904.95606991
 20
309.09814182
 42
-0.41507843
  0
VERTEX
  8
0
 10
1904.70401326
 20
310.04441731
  0
VERTEX
  8
0
 10
1960.59274562
 20
406.18978258
 42
-0.20318625
  0
VERTEX
  8
0
 10
1962.75172294
 20
407.80843772
 42
-0.20392474
  0
VERTEX
  8
0
 10
1976.10499101
 20
405.65460621
 42
-0.20392474
  0
VERTEX
  8
0
 10
1983.81145771
 20
394.53889066
 42
-0.18285852
  0
VERTEX
  8
0
 10
1983.42684187
 20
392.12245261
 42
0.30540480
  0
VERTEX
  8
0
 10
1988.72474936
 20
319.92846756
 42
0.02288576
  0
VERTEX
  8
0
 10
2002.74258753
 20
306.78640650
  0
VERTEX
  8
0
 10
2004.88646293
 20
304.97798972
  0
SEQEND
  0
POLYLINE
  8
WHITE
 66
   1
 39
0.000000
 70
    1
  0
VERTEX
  8
0
 10
784.76929030
 20
1196.43821670
 42
0.08713648
  0
VERTEX
  8
0
 10
742.13860162
 20
1173.69663438
 42
0.21619570
  0
VERTEX
  8
0
 10
768.61165249
 20
1175.39894321
 42
0.21619570
  0
VERTEX
  8
0
 10
784.76929030
 20
1196.43821670
  0
SEQEND
  0
POLYLINE
  8
WHITE
 66
   1
 39
0.000000
 70
    1
  0
VERTEX
  8
0
 10
1352.11775477
 20
827.26164388
 42
0.41421356
  0
VERTEX
  8
0
 10
1353.22492706
 20
825.32019050
 42
0.41421356
  0
VERTEX
  8
0
 10
1355.16637786
 20
826.42735809
 42
-0.10493841
  0
VERTEX
  8
0
 10
1360.61401066
 20
835.17370749
 42
-0.21758235
  0
VERTEX
  8
0
 10
1361.72807368
 20
846.28567413
 42
0.41421356
  0
VERTEX
  8
0
 10
1358.60345620
 20
850.57405123
 42
0.41421356
  0
VERTEX
  8
0
 10
1354.31507857
 20
847.44943038
 42
-0.16928727
  0
VERTEX
  8
0
 10
1353.57331970
 20
835.78968541
 42
-0.11532850
  0
VERTEX
  8
0
 10
1352.11775477
 20
827.26164388
  0
SEQEND
  0
POLYLINE
  8
WHITE
 66
   1
 39
0.000000
 70
    1
  0
VERTEX
  8
0
 10
584.70161921
 20
967.67865774
 42
0.41421356
  0
VERTEX
  8
0
 10
584.30181604
 20
965.47974037
 42
0.41421356
  0
VERTEX
  8
0
 10
586.50073197
 20
965.07993769
 42
-0.10493841
  0
VERTEX
  8
0
 10
596.29590424
 20
968.27835930
 42
-0.21758235
  0
VERTEX
  8
0
 10
604.29195822
 20
976.07451633
 42
0.41421356
  0
VERTEX
  8
0
 10
604.65487854
 20
981.36806666
 42
0.41421356
  0
VERTEX
  8
0
 10
599.36132568
 20
981.73098769
 42
-0.16928731
  0
VERTEX
  8
0
 10
591.29836606
 20
973.27589746
 42
-0.11532850
  0
VERTEX
  8
0
 10
584.70161921
 20
967.67865774
  0
SEQEND
  0
POLYLINE
  8
WHITE
 66
   1
 39
0.000000
 70
    1
  0
VERTEX
  8
0
 10
425.98895825
 20
1076.98755296
 42
0.15823420
  0
VERTEX
  8
0
 10
465.16563641
 20
1051.85550460
 42
-0.41421356
  0
VERTEX
  8
0
 10
466.48996034
 20
1047.74919491
 42
-0.41421356
  0
VERTEX
  8
0
 10
462.38364978
 20
1046.42486927
 42
-0.14186104
  0
VERTEX
  8
0
 10
425.98895825
 20
1076.98755296
  0
SEQEND
  0
POLYLINE
  8
WHITE
 66
   1
 39
0.000000
 70
    1
  0
VERTEX
  8
0
 10
1790.59260530
 20
1073.61101022
 42
0.20715300
  0
VERTEX
  8
0
 10
1791.04929371
 20
1072.32955435
 42
0.20715300
  0
VERTEX
  8
0
 10
1792.29619039
 20
1071.78554954
 42
0.20715300
  0
VERTEX
  8
0
 10
1793.54618275
 20
1072.32240303
 42
0.20715300
  0
VERTEX
  8
0
 10
1794.01020169
 20
1073.60122174
 42
0.29201129
  0
VERTEX
  8
0
 10
1783.28839771
 20
1111.17702916
 42
-0.10539773
  0
VERTEX
  8
0
 10
1790.59260530
 20
1073.61101022
  0
SEQEND
  0
POLYLINE
  8
WHITE
 66
   1
 39
0.000000
 70
    1
  0
VERTEX
  8
0
 10
1390.91312273
 20
883.94364270
 42
0.24412196
  0
VERTEX
  8
0
 10
1396.05718744
 20
888.66444954
 42
0.24412196
  0
VERTEX
  8
0
 10
1395.15570509
 20
895.58794127
 42
-0.23359689
  0
VERTEX
  8
0
 10
1397.53608778
 20
903.45364395
 42
-0.23359689
  0
VERTEX
  8
0
 10
1405.23016948
 20
906.34095693
 42
-0.21151363
  0
VERTEX
  8
0
 10
1407.66416181
 20
904.95753008
 42
-0.21151363
  0
VERTEX
  8
0
 10
1408.27564600
 20
902.22544743
 42
0.07798306
  0
VERTEX
  8
0
 10
1407.31725271
 20
878.88864667
 42
-0.21838650
  0
VERTEX
  8
0
 10
1405.97597789
 20
874.77819871
 42
-0.21838650
  0
VERTEX
  8
0
 10
1401.98573503
 20
873.11303583
  0
VERTEX
  8
0
 10
1392.08155652
 20
873.45668318
 42
-0.40714645
  0
VERTEX
  8
0
 10
1387.07595255
 20
878.69370103
  0
VERTEX
  8
0
 10
1387.07907989
 20
878.99152969
 42
-0.33601828
  0
VERTEX
  8
0
 10
1390.91312273
 20
883.94364270
  0
SEQEND
  0
POLYLINE
  8
WHITE
 66
   1
 39
0.000000
 70
    1
  0
VERTEX
  8
0
 10
650.85508070
 20
986.16240744
 42
0.33601830
  0
VERTEX
  8
0
 10
644.73487572
 20
984.83334264
  0
VERTEX
  8
0
 10
644.54103980
 20
984.60720323
 42
0.40714636
  0
VERTEX
  8
0
 10
645.00926727
 20
977.37787488
  0
VERTEX
  8
0
 10
652.37541643
 20
970.74834031
 42
0.21838635
  0
VERTEX
  8
0
 10
656.50246498
 20
969.45905013
 42
0.21838635
  0
VERTEX
  8
0
 10
660.17208375
 20
971.74568224
 42
-0.07798306
  0
VERTEX
  8
0
 10
675.90686300
 20
989.00666418
 42
0.21151365
  0
VERTEX
  8
0
 10
677.19459166
 20
991.49261677
 42
0.21151365
  0
VERTEX
  8
0
 10
676.21929579
 20
994.11692657
 42
0.23359689
  0
VERTEX
  8
0
 10
668.46935520
 20
996.85077389
 42
0.23359689
  0
VERTEX
  8
0
 10
661.58990004
 20
992.35537657
 42
-0.24412195
  0
VERTEX
  8
0
 10
657.83013884
 20
986.47221332
 42
-0.24412195
  0
VERTEX
  8
0
 10
650.85508070
 20
986.16240744
  0
SEQEND
  0
POLYLINE
  8
WHITE
 66
   1
 39
0.000000
 70
    1
  0
VERTEX
  8
0
 10
1166.69804824
 20
1017.11000865
 42
0.32558320
  0
VERTEX
  8
0
 10
1215.59486347
 20
990.83331337
 42
0.32558320
  0
VERTEX
  8
0
 10
1264.49167740
 20
1017.11000876
 42
-0.41421356
  0
VERTEX
  8
0
 10
1280.90042960
 20
1028.58246584
 42
-0.41421356
  0
VERTEX
  8
0
 10
1292.37288807
 20
1012.17371422
 42
-0.33991725
  0
VERTEX
  8
0
 10
1215.59486307
 20
963.01347796
 42
-0.33991725
  0
VERTEX
  8
0
 10
1138.81683957
 20
1012.17371435
 42
-0.41421356
  0
VERTEX
  8
0
 10
1150.28929675
 20
1028.58246584
 42
-0.41421356
  0
VERTEX
  8
0
 10
1166.69804824
 20
1017.11000865
  0
SEQEND
  0
POLYLINE
  8
WHITE
 66
   1
 39
0.000000
 70
    1
  0
VERTEX
  8
0
 10
1500.11474725
 20
919.55652656
 42
-0.28733365
  0
VERTEX
  8
0
 10
1489.89814771
 20
937.87576642
 42
-0.28733365
  0
VERTEX
  8
0
 10
1501.92209998
 20
955.06291326
  0
VERTEX
  8
0
 10
1539.43865126
 20
952.14809586
 42
0.22382311
  0
VERTEX
  8
0
 10
1550.46097237
 20
956.33282745
 42
0.22382311
  0
VERTEX
  8
0
 10
1554.24986072
 20
967.49740774
  0
VERTEX
  8
0
 10
1551.83546450
 20
988.73158345
 42
-0.24563289
  0
VERTEX
  8
0
 10
1586.40689259
 20
988.73158345
  0
VERTEX
  8
0
 10
1583.99249637
 20
967.49740774
 42
0.22382311
  0
VERTEX
  8
0
 10
1587.78138472
 20
956.33282745
 42
0.22382311
  0
VERTEX
  8
0
 10
1598.80370583
 20
952.14809586
  0
VERTEX
  8
0
 10
1636.32025664
 20
955.06291216
 42
-0.28733365
  0
VERTEX
  8
0
 10
1648.34420938
 20
937.87576642
 42
-0.28733365
  0
VERTEX
  8
0
 10
1638.12760984
 20
919.55652656
 42
0.30939137
  0
VERTEX
  8
0
 10
1598.20785026
 20
901.86837168
 42
-0.27316815
  0
VERTEX
  8
0
 10
1572.75117855
 20
890.06817466
  0
VERTEX
  8
0
 10
1572.75117855
 20
919.58872789
  0
VERTEX
  8
0
 10
1565.49117855
 20
919.58872789
  0
VERTEX
  8
0
 10
1565.49117972
 20
890.06817332
 42
-0.27316813
  0
VERTEX
  8
0
 10
1540.03450648
 20
901.86836885
 42
0.30939139
  0
VERTEX
  8
0
 10
1500.11474725
 20
919.55652656
  0
SEQEND
  0
POLYLINE
  8
Default_Layer
 66
   1
 39
0.000000
 70
    1
  0
VERTEX
  8
0
 10
2091.48766342
 20
643.49403249
 42
-0.13194508
  0
VERTEX
  8
0
 10
2087.53726083
 20
643.13998760
 42
-0.20785132
  0
VERTEX
  8
0
 10
2082.44985513
 20
646.49391279
 42
-0.20785132
  0
VERTEX
  8
0
 10
2081.42972673
 20
652.50139555
 42
-0.20785132
  0
VERTEX
  8
0
 10
2085.12482809
 20
657.34667591
  0
VERTEX
  8
0
 10
2109.44898827
 20
666.05874752
 42
0.41421341
  0
VERTEX
  8
0
 10
2109.86678018
 20
666.94282637
  0
VERTEX
  8
0
 10
2108.29306455
 20
671.33664751
 42
0.41421349
  0
VERTEX
  8
0
 10
2107.40898669
 20
671.75443977
  0
VERTEX
  8
0
 10
2085.63092226
 20
663.95428897
 42
-0.29876814
  0
VERTEX
  8
0
 10
2073.05100420
 20
670.20542977
 42
-0.29876814
  0
VERTEX
  8
0
 10
2073.77672067
 20
684.23412946
 42
-0.27016774
  0
VERTEX
  8
0
 10
2065.48422883
 20
690.36410384
 42
-0.27016774
  0
VERTEX
  8
0
 10
2066.73144523
 20
700.60062889
  0
VERTEX
  8
0
 10
2093.62943219
 20
710.34315436
 42
0.41421356
  0
VERTEX
  8
0
 10
2094.04406347
 20
711.22872076
  0
VERTEX
  8
0
 10
2092.45465928
 20
715.61688614
 42
0.41421351
  0
VERTEX
  8
0
 10
2091.56909103
 20
716.03151689
  0
VERTEX
  8
0
 10
2069.08918610
 20
707.88923476
 42
-0.28744556
  0
VERTEX
  8
0
 10
2059.06936810
 20
714.10777515
 42
-0.28744556
  0
VERTEX
  8
0
 10
2060.29650793
 20
725.83642159
 42
-0.35618744
  0
VERTEX
  8
0
 10
2048.49168249
 20
731.68993115
 42
-0.35618744
  0
VERTEX
  8
0
 10
2051.85662483
 20
744.42942174
  0
VERTEX
  8
0
 10
2081.20480322
 20
755.05941315
 42
0.41421347
  0
VERTEX
  8
0
 10
2081.61943430
 20
755.94497947
  0
VERTEX
  8
0
 10
2080.03003014
 20
760.33314476
 42
0.41421334
  0
VERTEX
  8
0
 10
2079.14446421
 20
760.74777617
  0
VERTEX
  8
0
 10
2051.28626805
 20
750.65746355
 42
-0.29787119
  0
VERTEX
  8
0
 10
2042.33953587
 20
759.57770356
 42
-0.29787119
  0
VERTEX
  8
0
 10
2046.92144001
 20
771.35144356
 42
-0.31186540
  0
VERTEX
  8
0
 10
2036.75750318
 20
778.66959006
 42
-0.31186540
  0
VERTEX
  8
0
 10
2040.00705680
 20
790.76509606
  0
VERTEX
  8
0
 10
2068.75989615
 20
801.06336111
  0
VERTEX
  8
0
 10
2066.71989838
 20
806.75905237
  0
VERTEX
  8
0
 10
2039.63271274
 20
797.05736731
 42
-0.31266855
  0
VERTEX
  8
0
 10
2030.50945935
 20
805.82133020
 42
-0.31266855
  0
VERTEX
  8
0
 10
2035.51351182
 20
817.44029228
 42
-0.37836481
  0
VERTEX
  8
0
 10
2023.94097359
 20
825.36490968
 42
-0.37836481
  0
VERTEX
  8
0
 10
2030.37433669
 20
837.82825694
  0
VERTEX
  8
0
 10
2056.67603063
 20
844.80524140
 42
0.41421336
  0
VERTEX
  8
0
 10
2057.16706246
 20
845.65083780
  0
VERTEX
  8
0
 10
2055.97040703
 20
850.16196326
 42
0.41421334
  0
VERTEX
  8
0
 10
2055.12481063
 20
850.65299509
  0
VERTEX
  8
0
 10
2028.82311668
 20
843.67601213
 42
-0.37409757
  0
VERTEX
  8
0
 10
2017.26842838
 20
853.28590878
 42
-0.37409757
  0
VERTEX
  8
0
 10
2025.18624640
 20
866.05967653
 42
-0.30188061
  0
VERTEX
  8
0
 10
2016.45068310
 20
875.99437708
 42
-0.30188061
  0
VERTEX
  8
0
 10
2022.22232815
 20
887.89800854
  0
VERTEX
  8
0
 10
2049.68068529
 20
889.11588046
 42
0.41421349
  0
VERTEX
  8
0
 10
2050.34079756
 20
889.83726853
  0
VERTEX
  8
0
 10
2050.13399819
 20
894.49982738
 42
0.41421340
  0
VERTEX
  8
0
 10
2049.41261152
 20
895.15993763
  0
VERTEX
  8
0
 10
2023.55255044
 20
894.01295349
 42
-0.23495478
  0
VERTEX
  8
0
 10
2016.75993580
 20
904.42695381
 42
-0.23495478
  0
VERTEX
  8
0
 10
2020.96624412
 20
916.12729480
 42
-0.32048065
  0
VERTEX
  8
0
 10
2017.86663250
 20
933.14476511
 42
-0.27698359
  0
VERTEX
  8
0
 10
2018.45772083
 20
933.54075734
  0
VERTEX
  8
0
 10
2049.49083283
 20
935.08899383
 42
0.41421356
  0
VERTEX
  8
0
 10
2050.14695015
 20
935.81401891
  0
VERTEX
  8
0
 10
2049.91439701
 20
940.47536265
 42
0.41421351
  0
VERTEX
  8
0
 10
2049.18937505
 20
941.13147996
  0
VERTEX
  8
0
 10
2019.93942633
 20
939.67220472
 42
-0.21841509
  0
VERTEX
  8
0
 10
2013.30478562
 20
950.26514508
 42
-0.21841509
  0
VERTEX
  8
0
 10
2017.00569808
 20
962.20382585
 42
-0.25831569
  0
VERTEX
  8
0
 10
2015.52725124
 20
976.30307719
 42
-0.25831569
  0
VERTEX
  8
0
 10
2026.69075443
 20
985.04097786
  0
VERTEX
  8
0
 10
2049.30388092
 20
984.92538829
 42
0.41421357
  0
VERTEX
  8
0
 10
2049.99883578
 20
985.61327329
  0
VERTEX
  8
0
 10
2050.02269140
 20
990.28035629
 42
0.41421330
  0
VERTEX
  8
0
 10
2049.33480675
 20
990.97531011
  0
VERTEX
  8
0
 10
2022.84783647
 20
991.11070331
 42
-0.27321854
  0
VERTEX
  8
0
 10
2016.94333723
 20
1000.31143829
 42
-0.27321854
  0
VERTEX
  8
0
 10
2022.14895050
 20
1009.92487662
 42
-0.22579075
  0
VERTEX
  8
0
 10
2024.17988689
 20
1029.17240900
  0
VERTEX
  8
0
 10
2050.74659282
 20
1026.96554353
 42
0.41421343
  0
VERTEX
  8
0
 10
2051.49288676
 20
1027.59735985
  0
VERTEX
  8
0
 10
2051.87925013
 20
1032.24848231
 42
0.41421341
  0
VERTEX
  8
0
 10
2051.24743419
 20
1032.99477653
  0
VERTEX
  8
0
 10
2025.27719125
 20
1035.15209508
 42
-0.27538529
  0
VERTEX
  8
0
 10
2029.00732578
 20
1062.43592772
 42
-0.25360437
  0
VERTEX
  8
0
 10
2032.41489579
 20
1079.18602868
 42
-0.28726079
  0
VERTEX
  8
0
 10
2033.11295389
 20
1079.41264614
  0
VERTEX
  8
0
 10
2057.85545566
 20
1073.21191817
 42
0.41421332
  0
VERTEX
  8
0
 10
2058.69422615
 20
1073.71452198
  0
VERTEX
  8
0
 10
2059.82877431
 20
1078.24166556
 42
0.41421331
  0
VERTEX
  8
0
 10
2059.32616765
 20
1079.08043410
  0
VERTEX
  8
0
 10
2036.87986437
 20
1084.70571184
 42
-0.26729494
  0
VERTEX
  8
0
 10
2030.48495112
 20
1096.12270264
 42
-0.26729494
  0
VERTEX
  8
0
 10
2037.14741300
 20
1107.38565943
 42
-0.21084616
  0
VERTEX
  8
0
 10
2039.85214545
 20
1117.60236025
 42
-0.21084616
  0
VERTEX
  8
0
 10
2049.22264843
 20
1122.49012234
  0
VERTEX
  8
0
 10
2124.73362380
 20
1087.27877507
 42
-0.41421354
  0
VERTEX
  8
0
 10
2125.06806203
 20
1086.35991991
  0
VERTEX
  8
0
 10
2103.73670583
 20
1040.61468066
 42
0.41421337
  0
VERTEX
  8
0
 10
2104.07114292
 20
1039.69582049
  0
VERTEX
  8
0
 10
2108.30101026
 20
1037.72340102
 42
0.41421357
  0
VERTEX
  8
0
 10
2109.21986771
 20
1038.05783778
  0
VERTEX
  8
0
 10
2130.55122350
 20
1083.80307807
 42
-0.41421356
  0
VERTEX
  8
0
 10
2131.47008215
 20
1084.13751291
  0
VERTEX
  8
0
 10
2205.88442354
 20
1049.43753835
 42
-0.17253484
  0
VERTEX
  8
0
 10
2156.89785419
 20
995.46837982
 42
-0.28947149
  0
VERTEX
  8
0
 10
2157.54381666
 20
986.31401088
 42
-0.28947149
  0
VERTEX
  8
0
 10
2149.55324866
 20
981.80063589
  0
VERTEX
  8
0
 10
2120.95858052
 20
988.17090906
  0
VERTEX
  8
0
 10
2140.48814925
 20
975.89882833
 42
-0.21041585
  0
VERTEX
  8
0
 10
2142.24917579
 20
968.33626757
 42
-0.21041585
  0
VERTEX
  8
0
 10
2137.85980520
 20
961.93103920
  0
VERTEX
  8
0
 10
2123.45281575
 20
959.15324438
 42
0.33041263
  0
VERTEX
  8
0
 10
2117.06431698
 20
954.44813278
 42
0.33041263
  0
VERTEX
  8
0
 10
2119.71388809
 20
946.96944451
  0
VERTEX
  8
0
 10
2137.69510578
 20
944.91525164
 42
-0.36646759
  0
VERTEX
  8
0
 10
2147.49877001
 20
937.45881561
 42
-0.36646759
  0
VERTEX
  8
0
 10
2141.76171655
 20
926.55943485
 42
-0.24854960
  0
VERTEX
  8
0
 10
2108.36893208
 20
922.68436821
 42
0.12135680
  0
VERTEX
  8
0
 10
2140.12321623
 20
908.51016038
 42
-0.38816145
  0
VERTEX
  8
0
 10
2151.02428325
 20
897.67488186
 42
-0.38816145
  0
VERTEX
  8
0
 10
2141.20978284
 20
885.84643590
 42
-0.15338943
  0
VERTEX
  8
0
 10
2101.50098426
 20
892.33483736
 42
0.09916854
  0
VERTEX
  8
0
 10
2146.68406229
 20
861.13667993
 42
-0.27917739
  0
VERTEX
  8
0
 10
2150.95677189
 20
849.68472373
 42
-0.27917739
  0
VERTEX
  8
0
 10
2142.78846865
 20
840.59175063
 42
-0.19590511
  0
VERTEX
  8
0
 10
2104.99913196
 20
843.08732531
 42
0.24253244
  0
VERTEX
  8
0
 10
2144.75022908
 20
823.47066109
 42
-0.31094773
  0
VERTEX
  8
0
 10
2152.91833055
 20
813.39194506
 42
-0.31094773
  0
VERTEX
  8
0
 10
2146.41821759
 20
802.16488284
 42
-0.17488267
  0
VERTEX
  8
0
 10
2119.63531615
 20
810.10292294
 42
0.21518955
  0
VERTEX
  8
0
 10
2157.66598999
 20
784.99168537
 42
-0.25565323
  0
VERTEX
  8
0
 10
2167.84154417
 20
775.39685228
 42
-0.25565323
  0
VERTEX
  8
0
 10
2165.24957400
 20
761.65332812
 42
-0.21111127
  0
VERTEX
  8
0
 10
2149.80777208
 20
763.02981853
 42
0.38486165
  0
VERTEX
  8
0
 10
2140.25485392
 20
757.61214954
 42
0.38486165
  0
VERTEX
  8
0
 10
2144.67926586
 20
747.56058315
 42
-0.23841843
  0
VERTEX
  8
0
 10
2162.98500704
 20
748.66635544
  0
VERTEX
  8
0
 10
2163.30674535
 20
748.54669713
  0
VERTEX
  8
0
 10
2163.63757555
 20
748.45574307
  0
VERTEX
  8
0
 10
2163.97514945
 20
748.38547925
  0
VERTEX
  8
0
 10
2164.31711889
 20
748.32789165
  0
VERTEX
  8
0
 10
2165.00485162
 20
748.21868912
  0
VERTEX
  8
0
 10
2165.34591855
 20
748.15104616
  0
VERTEX
  8
0
 10
2165.68198830
 20
748.06402340
 42
-0.25333105
  0
VERTEX
  8
0
 10
2178.87950196
 20
734.83920904
 42
-0.25333105
  0
VERTEX
  8
0
 10
2175.01984734
 20
716.55880201
 42
-0.20397294
  0
VERTEX
  8
0
 10
2169.31804695
 20
715.27198959
 42
-0.20397294
  0
VERTEX
  8
0
 10
2164.43801193
 20
718.48939106
 42
0.27299920
  0
VERTEX
  8
0
 10
2158.11789482
 20
721.56029753
 42
0.22072617
  0
VERTEX
  8
0
 10
2148.63555480
 20
716.19138039
 42
0.22072617
  0
VERTEX
  8
0
 10
2146.61369390
 20
705.48380727
 42
0.22072617
  0
VERTEX
  8
0
 10
2153.48535694
 20
697.02684029
 42
0.22072617
  0
VERTEX
  8
0
 10
2164.38007970
 20
696.81456777
 42
-0.24116767
  0
VERTEX
  8
0
 10
2171.17523487
 20
703.51843219
 42
-0.24116767
  0
VERTEX
  8
0
 10
2180.58637649
 20
701.92270917
 42
-0.20181239
  0
VERTEX
  8
0
 10
2188.14611191
 20
687.61998004
 42
-0.20181239
  0
VERTEX
  8
0
 10
2183.20599093
 20
672.21501727
 42
-0.21691112
  0
VERTEX
  8
0
 10
2179.30900278
 20
670.40416796
 42
-0.21691112
  0
VERTEX
  8
0
 10
2175.38427322
 20
672.15408572
 42
0.37826223
  0
VERTEX
  8
0
 10
2160.45229254
 20
678.40526105
 42
0.37826223
  0
VERTEX
  8
0
 10
2152.39827733
 20
664.36339226
 42
0.22131610
  0
VERTEX
  8
0
 10
2154.13620742
 20
662.01991772
 42
0.22131610
  0
VERTEX
  8
0
 10
2157.04827724
 20
661.84068936
 42
-0.28658074
  0
VERTEX
  8
0
 10
2179.49767656
 20
657.66136516
 42
-0.22939950
  0
VERTEX
  8
0
 10
2190.02823866
 20
624.18271340
 42
-0.24315452
  0
VERTEX
  8
0
 10
2188.17506762
 20
621.60493399
 42
-0.24315452
  0
VERTEX
  8
0
 10
2185.00036278
 20
621.62590459
 42
0.19867312
  0
VERTEX
  8
0
 10
2163.99039254
 20
623.55197529
 42
0.33760796
  0
VERTEX
  8
0
 10
2159.72230924
 20
610.07603243
 42
0.33760796
  0
VERTEX
  8
0
 10
2171.58372394
 20
602.38679372
 42
-0.27225696
  0
VERTEX
  8
0
 10
2180.39140480
 20
605.16775505
 42
-0.27225696
  0
VERTEX
  8
0
 10
2187.10258906
 20
598.82196914
 42
-0.30179828
  0
VERTEX
  8
0
 10
2189.34313982
 20
583.09021812
 42
-0.24092271
  0
VERTEX
  8
0
 10
2188.41130180
 20
561.48797034
 42
-0.12346152
  0
VERTEX
  8
0
 10
2174.99371235
 20
564.70601213
 42
0.24160801
  0
VERTEX
  8
0
 10
2169.74162718
 20
564.05538133
 42
0.24160801
  0
VERTEX
  8
0
 10
2167.20772035
 20
559.40919630
 42
0.24160801
  0
VERTEX
  8
0
 10
2169.50477340
 20
554.64146452
 42
0.24160801
  0
VERTEX
  8
0
 10
2174.71749295
 20
553.72754063
 42
-0.21014577
  0
VERTEX
  8
0
 10
2180.35536963
 20
556.99640822
 42
-0.21014577
  0
VERTEX
  8
0
 10
2186.57530658
 20
555.05127936
 42
-0.27450104
  0
VERTEX
  8
0
 10
2189.80413005
 20
519.81984825
 42
-0.31442871
  0
VERTEX
  8
0
 10
2186.62424220
 20
517.86664731
 42
-0.31442871
  0
VERTEX
  8
0
 10
2183.69391601
 20
520.17746331
 42
0.23224630
  0
VERTEX
  8
0
 10
2181.61639289
 20
522.40675670
 42
0.23126311
  0
VERTEX
  8
0
 10
2174.18515043
 20
521.73378803
 42
0.23126311
  0
VERTEX
  8
0
 10
2170.14973462
 20
515.45750963
 42
0.23126311
  0
VERTEX
  8
0
 10
2172.62161984
 20
508.41719467
 42
0.23126311
  0
VERTEX
  8
0
 10
2179.69487923
 20
506.04122013
 42
-0.26659100
  0
VERTEX
  8
0
 10
2182.87759165
 20
504.73073636
 42
-0.27111831
  0
VERTEX
  8
0
 10
2187.47664658
 20
469.45121532
 42
-0.28617962
  0
VERTEX
  8
0
 10
2183.60843078
 20
466.99290555
 42
-0.28617962
  0
VERTEX
  8
0
 10
2179.69819345
 20
469.38381006
 42
0.25334925
  0
VERTEX
  8
0
 10
2173.42395231
 20
471.00181072
 42
0.25334925
  0
VERTEX
  8
0
 10
2168.63961781
 20
466.63212241
 42
0.25334925
  0
VERTEX
  8
0
 10
2169.68375246
 20
460.23729518
 42
0.25334925
  0
VERTEX
  8
0
 10
2175.60950980
 20
457.61632566
 42
-0.26954146
  0
VERTEX
  8
0
 10
2187.01871205
 20
459.58896310
 42
-0.26972748
  0
VERTEX
  8
0
 10
2189.06181674
 20
418.98145328
 42
-0.34746269
  0
VERTEX
  8
0
 10
2179.12255732
 20
423.16040140
 42
0.22405629
  0
VERTEX
  8
0
 10
2173.85193067
 20
423.32191832
 42
0.22405629
  0
VERTEX
  8
0
 10
2170.37585076
 20
419.35676057
 42
0.22405629
  0
VERTEX
  8
0
 10
2171.22582505
 20
414.15261307
 42
0.22405629
  0
VERTEX
  8
0
 10
2175.78284739
 20
411.49947167
 42
-0.26195317
  0
VERTEX
  8
0
 10
2192.05174378
 20
406.64797496
 42
-0.23216050
  0
VERTEX
  8
0
 10
2185.61632547
 20
372.71648142
 42
-0.31056151
  0
VERTEX
  8
0
 10
2181.02881025
 20
370.70590549
 42
-0.31056151
  0
VERTEX
  8
0
 10
2177.50844830
 20
374.26887590
 42
0.22510363
  0
VERTEX
  8
0
 10
2173.56563841
 20
374.81346343
 42
0.22510363
  0
VERTEX
  8
0
 10
2170.64899997
 20
372.10504219
 42
0.22510363
  0
VERTEX
  8
0
 10
2170.90060246
 20
368.13276054
 42
0.22510363
  0
VERTEX
  8
0
 10
2174.13566260
 20
365.81398317
 42
-0.21241070
  0
VERTEX
  8
0
 10
2179.92159181
 20
365.34290969
 42
-0.21241070
  0
VERTEX
  8
0
 10
2183.44563504
 20
360.72988342
 42
-0.17053374
  0
VERTEX
  8
0
 10
2184.57412550
 20
320.09582882
 42
-0.31779085
  0
VERTEX
  8
0
 10
2178.07645813
 20
315.53803368
 42
-0.31779085
  0
VERTEX
  8
0
 10
2171.61266020
 20
320.14373580
 42
0.25161656
  0
VERTEX
  8
0
 10
2165.79316705
 20
320.69354623
 42
0.25161656
  0
VERTEX
  8
0
 10
2162.12218126
 20
316.14462819
 42
0.25161656
  0
VERTEX
  8
0
 10
2163.88867814
 20
310.57252978
 42
0.25161656
  0
VERTEX
  8
0
 10
2169.50998617
 20
308.96950515
 42
-0.28889552
  0
VERTEX
  8
0
 10
2174.46626772
 20
310.91069497
 42
-0.28889552
  0
VERTEX
  8
0
 10
2178.35494076
 20
307.27597924
 42
-0.32498549
  0
VERTEX
  8
0
 10
2172.39754569
 20
282.50324462
 42
-0.22939224
  0
VERTEX
  8
0
 10
2163.85744961
 20
274.77792836
 42
0.37424824
  0
VERTEX
  8
0
 10
2160.27805474
 20
269.52188087
 42
0.37424824
  0
VERTEX
  8
0
 10
2164.99024651
 20
265.25182724
 42
-0.32263773
  0
VERTEX
  8
0
 10
2163.20233822
 20
239.78405727
 42
0.34521689
  0
VERTEX
  8
0
 10
2154.51610364
 20
234.00428614
 42
0.34521689
  0
VERTEX
  8
0
 10
2158.05401986
 20
224.18901410
 42
-0.24637150
  0
VERTEX
  8
0
 10
2151.75177659
 20
197.09945094
 42
0.30448999
  0
VERTEX
  8
0
 10
2144.55915437
 20
192.75543375
 42
0.30448999
  0
VERTEX
  8
0
 10
2145.85477129
 20
184.45328473
 42
-0.23740190
  0
VERTEX
  8
0
 10
2129.15876101
 20
159.20154369
 42
-0.23056966
  0
VERTEX
  8
0
 10
2084.43534534
 20
94.47150144
 42
-0.22616947
  0
VERTEX
  8
0
 10
2079.60933006
 20
103.30165245
 42
-0.22616947
  0
VERTEX
  8
0
 10
2083.43073097
 20
112.61072477
 42
-0.36799997
  0
VERTEX
  8
0
 10
2078.44445227
 20
116.38195885
 42
-0.36799997
  0
VERTEX
  8
0
 10
2081.37135623
 20
121.90630546
  0
VERTEX
  8
0
 10
2090.38034579
 20
129.70813712
 42
-0.36246161
  0
VERTEX
  8
0
 10
2080.31682447
 20
137.19267060
 42
-0.36246161
  0
VERTEX
  8
0
 10
2085.88029535
 20
148.43279936
 42
0.27031004
  0
VERTEX
  8
0
 10
2103.67810570
 20
161.51613740
 42
-0.20652616
  0
VERTEX
  8
0
 10
2096.23854919
 20
160.49288915
 42
-0.20652616
  0
VERTEX
  8
0
 10
2090.38970433
 20
165.20299215
 42
-0.20652616
  0
VERTEX
  8
0
 10
2089.80321676
 20
172.68965288
 42
-0.20652616
  0
VERTEX
  8
0
 10
2094.84725726
 20
178.25307917
 42
0.37269850
  0
VERTEX
  8
0
 10
2110.44702176
 20
187.05589335
 42
-0.33989292
  0
VERTEX
  8
0
 10
2098.29669803
 20
190.71772761
 42
-0.33989292
  0
VERTEX
  8
0
 10
2098.70897260
 20
203.40115720
  0
VERTEX
  8
0
 10
2110.99960232
 20
215.30999343
 42
0.17381335
  0
VERTEX
  8
0
 10
2117.97554180
 20
224.31307641
 42
-0.23805202
  0
VERTEX
  8
0
 10
2108.41932763
 20
225.23289376
 42
-0.23805202
  0
VERTEX
  8
0
 10
2103.48318685
 20
233.46707757
 42
-0.26775058
  0
VERTEX
  8
0
 10
2106.49248289
 20
239.68721169
 42
0.12378418
  0
VERTEX
  8
0
 10
2122.36526539
 20
257.51270901
 42
-0.30825376
  0
VERTEX
  8
0
 10
2111.33749222
 20
262.18068995
 42
-0.30825376
  0
VERTEX
  8
0
 10
2111.64491548
 20
274.15179212
 42
0.26113450
  0
VERTEX
  8
0
 10
2122.28894440
 20
291.86140114
 42
0.40457282
  0
VERTEX
  8
0
 10
2120.68515195
 20
295.08349115
 42
0.40457282
  0
VERTEX
  8
0
 10
2117.41185968
 20
293.58697119
 42
-0.21356110
  0
VERTEX
  8
0
 10
2114.25312538
 20
288.50148044
 42
-0.21356110
  0
VERTEX
  8
0
 10
2108.35624997
 20
287.46867840
 42
-0.21356110
  0
VERTEX
  8
0
 10
2103.65717107
 20
291.17792051
 42
-0.21356110
  0
VERTEX
  8
0
 10
2103.29234284
 20
297.15343052
 42
0.12769691
  0
VERTEX
  8
0
 10
2110.74569316
 20
311.78335447
 42
-0.09966660
  0
VERTEX
  8
0
 10
2126.98388764
 20
323.13981042
 42
-0.34150317
  0
VERTEX
  8
0
 10
2129.93654889
 20
343.53872809
  0
VERTEX
  8
0
 10
2150.54212980
 20
342.99439403
 42
0.41421356
  0
VERTEX
  8
0
 10
2151.25157787
 20
343.66732162
  0
VERTEX
  8
0
 10
2151.37482502
 20
348.33283617
 42
0.41421334
  0
VERTEX
  8
0
 10
2150.70189706
 20
349.04228257
  0
VERTEX
  8
0
 10
2129.01946403
 20
349.61506591
 42
-0.28278913
  0
VERTEX
  8
0
 10
2120.74629075
 20
357.36913337
 42
-0.28278913
  0
VERTEX
  8
0
 10
2123.92992750
 20
368.25194150
 42
-0.23516037
  0
VERTEX
  8
0
 10
2120.45674560
 20
377.44868297
 42
-0.23516037
  0
VERTEX
  8
0
 10
2125.70166298
 20
385.76336171
  0
VERTEX
  8
0
 10
2149.58595800
 20
387.63954698
 42
0.41421357
  0
VERTEX
  8
0
 10
2150.22111605
 20
388.38299921
  0
VERTEX
  8
0
 10
2149.85562345
 20
393.03580878
 42
0.41421355
  0
VERTEX
  8
0
 10
2149.11216909
 20
393.67096754
  0
VERTEX
  8
0
 10
2126.55186462
 20
391.89878672
 42
-0.41235431
  0
VERTEX
  8
0
 10
2118.21088899
 20
411.53370408
 42
-0.25237974
  0
VERTEX
  8
0
 10
2115.06999775
 20
425.00294895
 42
-0.25237974
  0
VERTEX
  8
0
 10
2124.59592349
 20
435.03003631
  0
VERTEX
  8
0
 10
2149.37399235
 20
436.84603197
  0
VERTEX
  8
0
 10
2148.93177192
 20
442.87984909
  0
VERTEX
  8
0
 10
2124.15370142
 20
441.06385504
 42
-0.27388953
  0
VERTEX
  8
0
 10
2112.76677190
 20
450.57895963
 42
-0.27388953
  0
VERTEX
  8
0
 10
2115.63659030
 20
465.13792162
 42
-0.29279010
  0
VERTEX
  8
0
 10
2110.93824551
 20
473.74697207
 42
-0.29279010
  0
VERTEX
  8
0
 10
2116.79333875
 20
481.61514003
  0
VERTEX
  8
0
 10
2143.12143413
 20
485.43201305
 42
0.41421331
  0
VERTEX
  8
0
 10
2143.70650738
 20
486.21548954
  0
VERTEX
  8
0
 10
2143.03689675
 20
490.83434710
 42
0.41421344
  0
VERTEX
  8
0
 10
2142.25341992
 20
491.41942027
  0
VERTEX
  8
0
 10
2115.92532576
 20
487.60254886
 42
-0.29978468
  0
VERTEX
  8
0
 10
2106.21734932
 20
496.46092375
 42
-0.29978468
  0
VERTEX
  8
0
 10
2110.52454777
 20
508.87718822
 42
-0.23834541
  0
VERTEX
  8
0
 10
2108.07021113
 20
518.87604438
 42
-0.23834541
  0
VERTEX
  8
0
 10
2114.66512506
 20
526.78224474
  0
VERTEX
  8
0
 10
2139.80280540
 20
530.67344214
 42
0.41421313
  0
VERTEX
  8
0
 10
2140.38032537
 20
531.46250248
  0
VERTEX
  8
0
 10
2139.66637688
 20
536.07471532
 42
0.41421356
  0
VERTEX
  8
0
 10
2138.87731495
 20
536.65223549
  0
VERTEX
  8
0
 10
2113.73963672
 20
532.76103753
 42
-0.28710216
  0
VERTEX
  8
0
 10
2104.54629969
 20
539.75552096
 42
-0.28710216
  0
VERTEX
  8
0
 10
2106.81774128
 20
551.08162998
 42
-0.28659250
  0
VERTEX
  8
0
 10
2100.97479320
 20
560.54273525
 42
-0.28659250
  0
VERTEX
  8
0
 10
2106.91168706
 20
569.94517460
  0
VERTEX
  8
0
 10
2134.29305018
 20
574.04255957
 42
0.41421357
  0
VERTEX
  8
0
 10
2134.87453815
 20
574.82870349
  0
VERTEX
  8
0
 10
2134.18383089
 20
579.44445190
 42
0.41421326
  0
VERTEX
  8
0
 10
2133.39768820
 20
580.02594043
  0
VERTEX
  8
0
 10
2106.01632103
 20
575.92854990
 42
-0.32480297
  0
VERTEX
  8
0
 10
2093.34123314
 20
583.85260108
 42
-0.32480297
  0
VERTEX
  8
0
 10
2096.95451609
 20
598.35752465
 42
-0.21850774
  0
VERTEX
  8
0
 10
2094.12090462
 20
608.07140060
 42
-0.21850774
  0
VERTEX
  8
0
 10
2099.63803135
 20
616.55373849
  0
VERTEX
  8
0
 10
2122.13536429
 20
620.78618366
 42
0.41421355
  0
VERTEX
  8
0
 10
2122.68703440
 20
621.59353023
  0
VERTEX
  8
0
 10
2121.82413846
 20
626.18020809
 42
0.41421356
  0
VERTEX
  8
0
 10
2121.01679355
 20
626.73188143
  0
VERTEX
  8
0
 10
2098.51946292
 20
622.49943700
 42
-0.36353799
  0
VERTEX
  8
0
 10
2086.74470783
 20
631.41551930
 42
-0.30906245
  0
VERTEX
  8
0
 10
2091.48766342
 20
643.49403249
  0
SEQEND
  0
ENDSEC
  0
EOF
